PrimaNota.ru - самый крупный в мире бесплатный архив песенных текстов, аккордов, табулатур и нот


Frenzal Rhomb - Runaway - аккорды и текст, таба, бас-таба, видео

Регистрация Запомнить меня
Войти через:  Facebook Google Twitter Vk Yandex Mail.ru

Frenzal Rhomb - Runaway - аккорды и текст, таба, бас-таба, видео

Печатать
Просмотров: 186
Уроки эстрадного вокала в Санкт-Петербурге
Runaway
Frenzal Rhomb
Song Name: Run Away
Artist: Frenzal Rhomb
Album: Shut Your Mouth
Tabbed by: Luke Woodgate
Email: frenzal_rhomb17@hotmail.com
Site: http://www.geocities.com/lukes_tabs

This was done in about 5 min so bits are probably wrong
Especially the bridge

Verse
e|-------------------------------------------------------|
B|-------------------------------------------------------|
G|---------------------3--3--3--3--3--6--6---6--6--------|
D|-5---5--5---5----5---3--3--3--3--3--6--6---6--6--5-5-5-|
A|-5---5--5---5----5---1--1--1--1--1--4--4---4--4--5-5-5-|
E|-3---3--3---3----3-------------------------------3-3-3-|
 Ive been l...

Pre Chorus
e|-----------------------------------------------|
B|-----------------------------------------------|
G|-3---3----3--3-------5--5--5-5-----------------|
D|-3---3----3--3-------5--5--5-5-----------------|
A|-1---1----1--1-------3--3--3-3-----------------|
E|-----------------------------------------------|
  Smashed up ...
  fucked up ...
  gotta gotta gotta gotta run run away

Chorus
e|-----------------------------------------------------|
B|-----------------------------------------------------|
G|-----------------3--3---3--3---3--6--6---6--6--------|
D|-5-5--5---5--5---3--3---3--3---3--6--6---6--6--5-5-5-|
A|-5-5--5---5--5---1--1---1--1---1--4--4---4--4--5-5-5-|
E|-3-3--3---3--3---------------------------------3-3-3-|
                        run         away

Bridge
e|-------------------------------------------------|
B|-------------------------------------------------|
G|-6-----5---5---6----5---5-------------3--6--5----|x4
D|-6-----5---5---6----5---5----------5--3--6--5----|
A|-4-----3---3---4----3---3----------5--1--4--3----|
E|-----------------------------------3-------------|
  run and runnin run and runnin away

Order

Verse x2
Pre Chorus
Chorus x2
Verse
Pre Chorus
Chorus
Bridge
Pre Chorus
Chorus x2


     
Добавлено: 02.07.2013
Другие материалы по этой песне:
  • Аккорды и текст

Страница создана 18.04.2012
http://primanota.ru/frenzal-rhomb/runaway-chords.htm
Привет, Гость.
Предлагаем пройти революционный курс по гитаре.
Подарок от PrimaNota.Ru, забирай!