PrimaNota.ru - самый крупный в мире бесплатный архив песенных текстов, аккордов, табулатур и нот


Frenzal Rhomb - Punisher - текст песни, бас-таба, видео

Регистрация Запомнить меня
Войти через:  Facebook Google Twitter Vk Yandex Mail.ru

Frenzal Rhomb - Punisher - текст песни, бас-таба, видео

Печатать
Просмотров: 165
Уроки эстрадного вокала в Санкт-Петербурге
Авторы музыки: Jason Whalley, Lindsay McDougall, Gordy Foreman, Tom Crease
Авторы текста: Jason Whalley, Lindsay McDougall, Gordy Foreman, Tom Crease
Intro
G|----------------------------------|
D|---4646464646---------------------|
A|--------------7777777777-44444444-|
E|-4--------------------------------|

Verse
G|----------------------------------------|
D|---6-------6-------6-------6------------|
A|--6---22--6---22--6---22--6---2^22—2^22-|
E|-4---0---4---0---4---0---4---0----0-----|

Prechorus
G|-------------------------------------------|
D|-----------------------------44444-5555555-|
A|-----------------66666-77777---------------|
E|-4444-22222-0000---------------------------|

Chorus 1
G|------------------------------------|
D|----------------------4646464646464-|
A|-77777777-44444444------------------|
E|--------------------4---------------|

Chorus 2
G|------------------------------------------------------------------|
D|-------------------------------------------------------4646464644-|
A|-7777777-4444444-------------------777777777-4444444--------------|
E|-----------------44444444444-76-42-------------------4------------|

Verse 3
G|-------------------------------------|
D|-------------------------------------|
A|-------------------------------------|
E|-44444444-00000000-44444444-00000000-|

Chorus 3
G|--------------------------------------------------------------------------|
D|--------------------------------------------------------------------------|
A|-7777777-4444444----------------------77777777-4444444--------------------|
E|-----------------44444444444444-76-42------------------444444444444-76-42-|

Bridge (What champion, what a way to learn...)
G|----------------------------------------------------------------------------------|
D|-22222222----------4444444--------------------------44444444------------464646464-|
A|----------22222222---------444444-66-77777777-22222----------44444-66-------------|
E|----------------------------------------------------------------------4-----------|

Interlude (Find it so hard to listen...)
G|-----------------------------|
D|-----------------------------|
A|-----------------------------|
E|-4-3-2-1-4-3-222222222-33333-|

Outro
G|-------------|
D|----------4~-|
A|-7~-2~21-----|
E|--------4----|
Добавлено: 05.04.2012
Другие материалы по этой песне:
  • Аккорды и текст

Страница создана 22.03.2012
http://primanota.ru/frenzal-rhomb/punisher-chords.htm
Привет, Гость.
Предлагаем пройти революционный курс по гитаре.
Подарок от PrimaNota.Ru, забирай!