PrimaNota.ru - самый крупный в мире бесплатный архив песенных текстов, аккордов, табулатур и нот


Frenzal Rhomb - Punch In The Face - аккорды и текст, таба, бас-таба, видео

Регистрация Запомнить меня
Войти через:  Facebook Google Twitter Vk Yandex Mail.ru

Frenzal Rhomb - Punch In The Face - аккорды и текст, таба, бас-таба, видео

Печатать
Просмотров: 178
Punch In The Face
Frenzal Rhomb
Author/Artist: Frenzal Rhomb
Title: Punch in the face
Album: Not so tough now
Transcribed by: Luke Lundberg
Email: kane_72@hotmail.com

------------------------------------------------------------------------------
------------------------------------------------------------------------------
---------6-6-6--3-3-3--5-5-5--------------------------------------------------
--5-5-5--6-6-6--3-3-3--5-5-5--------------------------------------------------
--5-5-5--4-4-4--1-1-1--3-3-3--------------------------------------------------
--3-3-3-----------------------------------------------------------------------
  play this a few times and on the last time p.m the c5 chord                 

------------------------------------------------------------------------------
------------------------------------------------------------------------------
-----------7-7-7-7--4-4-4-4--5-5-5-5------------------------------------------
--5-5-5-5--7-7-7-7--4-4-4-4--5-5-5-5------------------------------------------
--5-5-5-5--5-5-5-5--2-2-2-2--3-3-3-3------------------------------------------
--3-3-3-3---------------------------------------------------------------------
 no guitar 4 verse. start chorus wit pickslide.                      

------------------------------------------------------------------------------
------------------------------------------------------------------------------
---------7-7-7--3-3-3--5-5-5--------------------------------------------------
--5-5-5--7-7-7--3-3-3--5-5-5--------------------------------------------------
--5-5-5--5-5-5--1-1-1--3-3-3--------------------------------------------------
--3-3-3-----------------------------------------------------------------------
 all we need  is. is a punch in the face..                  

------------------------------------------------------------------------------
------------------------------------------------------------------------------
------------7-7-7-7-----------5-5-5-5-----------------------------------------
---5-5-5-5--7-7-7-7--2-2-2-2--5-5-5-5-----------------------------------------
---5-5-5-5--5-5-5-5--2-2-2-2--3-3-3-3-----------------------------------------
---3-3-3-3-----------0-0-0-0--------------------------------------------------
 play the chorus 2 times, on the 3rd time there is a vairation.               

------------------------------------------------------------------------------
------------------------------------------------------------------------------
----------7-7-7--3-3-3--5-5-5-------------------------------------------------
---5-5-5--7-7-7--3-3-3--5-5-5-------------------------------------------------
---5-5-5--5-5-5--1-1-1--3-3-3-------------------------------------------------
---3-3-3----------------------------------------------------------------------
 this happens after the chorus. then go bak 2 chorus. easy song mate.         

Добавлено: 03.01.2014
Другие материалы по этой песне:

Страница создана 28.02.2012
http://primanota.ru/frenzal-rhomb/punch-in-the-face-chords.htm
Привет, Гость.
Предлагаем пройти революционный курс по гитаре.
Подарок от PrimaNota.Ru, забирай!