PrimaNota.ru - самый крупный в мире бесплатный архив песенных текстов, аккордов, табулатур и нот


Frenzal Rhomb - Mummy Doesnt Know Your A Nazi - таба, видео

Регистрация Запомнить меня
Войти через:  Facebook Google Twitter Vk Yandex Mail.ru

Frenzal Rhomb - Mummy Doesnt Know Your A Nazi - таба, видео

Печатать
Просмотров: 132
Уроки эстрадного вокала в Санкт-Петербурге
  ARTIST : FRENZAL RHOMB
  ALBUM  : SMOKO AT THE PET FOOD FACTORY
  SONG   : MUMMY DOESN'T KNOW YOUR A NAZI
 
  Australia's best band thrashing faster than you're little brother wanking!
   
  and fun to play along to. enjoy!! 

  Standard Tuning
  
  Listen for strumming 
   Intro                   Verse                    Pre Chorus
 e|-----------------------|-----------------------|-----------------|
 B|-----------------------|-----------------------|-----------------|
 G|-----------------555---|---77777x55555x--------|---77777x--------|
 D|---2--LET RING---555---|---77777-55555-55555x--|---77777---------|
 A|---2-------------333---|---55555-33333-55555---|---55555---------|
 E|---0-------------------|---------------33333---|-----------------|

      E             C         D     C     G           D         
 


   Chorus
                                                                              Nazi cunt...
 e|----------------------------------------------------------------------------------------|
 B|----------------------------------------------------------------------------------------|
 G|--------5555------7777-------5555---5-7777-------5555------7777-------5555-7-5-4-4444x--|
 D|---2222-5555-5555-7777--2222-5555-5-5-7777--2222-5555-5555-7777--2222-5555-7-5-4-4444---|
 A|---2222-3333-5555-5555--2222-3333-5-3-5555--2222-3333-5555-5555--2222-3333-5-3-2-2222---|
 E|---0000------3333-------0000------3---------0000------3333-------0000-------------------|
     
      E     C   G    D     E    C    G C D     E    C    G    D     E    C    D C B



   Bridge (Intro again but hit the C once)

 e|-----------------------------------------------------------------------------------------|
 B|-----------------------------------------------------------------------------------------|
 G|-----------------5-----------------------------------------------------------------------|
 D|---2-------------5-----------------------------------------------------------------------|
 A|---2--LET RING---3-----------------------------------------------------------------------|
 E|---0-------------------------------------------------------------------------------------|

      E             C



  Verse


  Chorus


  Solo

  
  Chorus


  End
  


  Sorry no solo too much effort to tab but I'm pretty sure it's similar to the verse riff with
  a few changes and extra notes so just listen and rip a shredding solo!! STAY PUNK

  Tabbed by SATAN'S SLAVE
  Hate mail to: batteryacid88@yahoo.com.au
Добавлено: 21.11.2013
Другие материалы по этой песне:
  • Аккорды и текст

Страница создана 21.11.2013
http://primanota.ru/frenzal-rhomb/mummy-doesnt-know-your-a-nazi-chords.htm
Привет, Гость.
Предлагаем пройти революционный курс по гитаре.
Подарок от PrimaNota.Ru, забирай!