PrimaNota.ru - самый крупный в мире бесплатный архив песенных текстов, аккордов, табулатур и нот


Frenzal Rhomb - Johnny Ramone - таба, видео

Регистрация Запомнить меня
Войти через:  Facebook Google Twitter Vk Yandex Mail.ru

Frenzal Rhomb - Johnny Ramone - таба, видео

Печатать
Просмотров: 121
-------------------------------------------------------------------------------
                       Johnny Ramone - Frenzal Rhomb
-------------------------------------------------------------------------------
Tabbed by:Anson93
Email:maccadonald93@hotmail.com

Tuning: Standard (E B G D A E)

I couldn't get this onto the site last time I tried.
Maybe it was because the title had swearing in it.
That's why I took those words out.

Intro:

Lead

E|-------------------------------------------------------------------------|
B|-------------------------------------------------------------------------|
G|-------------------------------------------------------------------------|
D|-------------------------------------------------------------------------|
A|4/6\4-4--4-4-4-6---------------------------------------------------------|
E|-----------------6--6----------------------------------------------------|

Chorus:

Rhythm

E|-----------------------------------------------------------------------------|
B|-----------------------------------------------------------------------------|
G|8\6-6-6-6-6-8--------------------------8\6-6-6-6-6-8-------------------------|
D|8\6-6-6-6-6-8-8-8-8-8-9--8--4-44444444-8\6-6-6-6-6-8-8-8-8-8-9--8--4-44448/9-|
A|6\4-4-4-4-4-6-8-8-8-8-9--8--4-44444444-6\4-4-4-4-4-6-8-8-8-8-9--8--4-44448/9-|
E|--------------6-6-6-6-7--6--2-22222222---------------6-6-6-6-7--6--2-22226/7-|

Verse:

Rhythm

E|-------------------------------------------------------------------------|
B|-------------------------------------------------------------------------|
G|-------------------------------------------------------------------------|
D|8-888888888888/9-8-888888888888/9-8-888888888888/9-8-888888888888888-----|
A|8-888888888888/9-8-888888888888/9-8-888888888888/9-8-888888888888888-----|
E|6-666666666666/7-6-666666666666/7-6-666666666666/7-6-666666666666666-----|

Bridge:

Rhythm

E|-------------------------------------------------------------------------|
B|-------------------------------------------------------------------------|
G|-------------------------------------------------------------------------|
D|666666666666666666666666666666-8/9---------------------------------------|
A|666666666666666666666666666666-8/9---------------------------------------|
E|444444444444444444444444444444-6/7---------------------------------------|

Verse:

Rhythm

E|-------------------------------------------------------------------------|
B|-------------------------------------------------------------------------|
G|-------------------------------------------------------------------------|
D|8-888888888888/9-8-888888888888/9-8-888888888888/9-8---------------------|
A|8-888888888888/9-8-888888888888/9-8-888888888888/9-8---------------------|
E|6-666666666666/7-6-666666666666/7-6-666666666666/7-6---------------------|
 |                                                                         |
 |Lead                                                                     |
 |                                                                         |
E|--666666666666-----666666666666-----666666666666-------------------------|
B|-------------------------------------------------------------------------|
G|-------------------------------------------------------------------------|
D|-------------------------------------------------------------------------|
A|-------------------------------------------------------------------------|
E|-------------------------------------------------------------------------|


| /  slide up
| \  slide down
| h  hammer-on
| p  pull-off
| ~  vibrato
| +  harmonic
| x  Mute note
============================================================================
Добавлено: 10.05.2012
Другие материалы по этой песне:
  • Аккорды и текст

Страница создана 10.05.2012
http://primanota.ru/frenzal-rhomb/johnny-ramone-chords.htm
Привет, Гость.
Предлагаем пройти революционный курс по гитаре.
Подарок от PrimaNota.Ru, забирай!