PrimaNota.ru - самый крупный в мире бесплатный архив песенных текстов, аккордов, табулатур и нот


Frenzal Rhomb - Forever Malcolm Young - текст песни, таба, видео

Регистрация Запомнить меня
Войти через:  Facebook Google Twitter Vk Yandex Mail.ru

Frenzal Rhomb - Forever Malcolm Young - текст песни, таба, видео

Печатать
Просмотров: 188
-------------------------------------------------------------------------------
                    FOREVER MALCOLM YOUNG - Frenzal Rhomb
-------------------------------------------------------------------------------
Tabbed by: Skartel
Email: skartel [at] gmail.com

Tuning: Standard

e|---------------------------------------------------------------------------|
B|--999----------999----------999--------------------------------------------|
G|--888-8888888--888-8888888--888--------------------------------------------|
D|--666-8888888--666-8888888--666--------------------------------------------|
A|------6666666------6666666-------------------------------------------------|
E|---------------------------------------------------------------------------|

e|---------------------------------------------------------------------------|
B|---------------------------------------------999----------999----------999-|
G|---------------------------------------------888-8888888--888-8888888--888-|
D|--10-10-10-10-10-10-10-10-10-10-10-10-10-10--666-8888888--666-8888888--666-|
A|--10-10-10-10-10-10-10-10-10-10-10-10-10-10------6666666------6666666------|
E|--8--8--8--8--8--8--8--8--8--8--8--8--8--8---------------------------------|
Never seem to be...

e|---------------------------------------------------------------------------|
B|---------------------------------------------------------------------------|
G|---------------------------------------------------------------------------|
D|--10-10-10-10-10-10-10-10-10-10-10-10-10-10--------------------------------|
A|--10-10-10-10-10-10-10-10-10-10-10-10-10-10--------------------------------|
E|--8--8--8--8--8--8--8--8--8--8--8--8--8--8---------------------------------|
Destined for a life...

e|---------------------------------------------------------------------------|
B|---------------------------------------------------------------------------|
G|---------------------------------------------------------------------------|
D|--6666666-8888888-10-10-10-10-10-10-10-10-10-10-10-10-10-10----------------|
A|--6666666-8888888-10-10-10-10-10-10-10-10-10-10-10-10-10-10----------------|
E|--4444444-6666666-8--8--8--8--8--8--8--8--8--8--8--8--8--8-----------------|
Together now whatever...

e|---------------------------------------------------------------------------|
B|------------------999----------999----------999----------------------------|
G|------------------888-8888888--888-8888888--888----------------------------|
D|--6666666-8888888-666-8888888--666-8888888--666----------------------------|
A|--6666666-8888888-----6666666------6666666---------------------------------|
E|--4444444-6666666----------------------------------------------------------|
He'll be forever...

e|---------------------------------------------------------------------------|
B|---------------------------------------------------------------------------|
G|---------------------------------------------------------------------------|
D|--10-10-10-10-10-10-10-10-10-10-10-10-10-10--6666666-8888888---------------|
A|--10-10-10-10-10-10-10-10-10-10-10-10-10-10--6666666-8888888---------------|
E|--8--8--8--8--8--8--8--8--8--8--8--8--8--8---4444444-6666666---------------|
Always gnocchi not linguine...

e|---------------------------------------------------------------------------|
B|-------------------------------------------999----------999----------------|
G|----------------------------------8888888--888-8888888--888----------------|
D|--3333333-5555555-6666666-8888888-8888888--666-8888888--666----------------|
A|--3333333-5555555-6666666-8888888-6666666------6666666---------------------|
E|--1111111-3333333-4444444-6666666------------------------------------------|
PM  ....    ....    ....    ....
Always Malcolm never Angus...

e|---------------------------------------------------------------------------|
B|---------------------------------------------------------------------------|
G|---------------------------------------------------------------------------|
D|--10-10-10-10-10-10-10-10-10-10-10-10-10-10--------------------------------|
A|--10-10-10-10-10-10-10-10-10-10-10-10-10-10--------------------------------|
E|--8--8--8--8--8--8--8--8--8--8--8--8--8--8---------------------------------|
Shouldn't have a complex...

e|---------------------------------------------------------------------------|
B|---------------------------------------------------------------------------|
G|---------------------------------------------------------------------------|
D|--6666666-8888888-10-10-10-10-10-10-10-10-10-10-10-10-10-10----------------|
A|--6666666-8888888-10-10-10-10-10-10-10-10-10-10-10-10-10-10----------------|
E|--4444444-6666666-8--8--8--8--8--8--8--8--8--8--8--8--8--8-----------------|
Together now whatever...

e|---------------------------------------------------------------------------|
B|---------------------------------------------------------------------------|
G|---------------------------------------------------------------------------|
D|--6666666-8888888----------------------------------------------------------|
A|--6666666-8888888----------------------------------------------------------|
E|--4444444-6666666----------------------------------------------------------|
He'll be forever...

Solo
e|---------------------------------------------------------------------------|
B|---------------------------------------------------------------------------|
G|-1--1--3--5--3--------1----------------------------------------------------|
D|----------------3--5-----5--3--1--3--5--------1----------------------------|
A|----------------------------------------3--5-----------1--3--1-------------|
E|-------------------------------------------------4--4-----------1--1--3----|

e|---------------------------------------------------------------------------|
B|-----------999----------999------------------------------------------------|
G|--8888888--888-8888888--888------------------------------------------------|
D|--8888888--666-8888888--666------------------------------------------------|
A|--6666666------6666666-----------------------------------------------------|
E|---------------------------------------------------------------------------|

e|---------------------------------------------------------------------------|
B|---------------------------------------------------------------------------|
G|---------------------------------------------------------------------------|
D|--10-10-10-10-10-10-10-10-10-10-10-10-10-10--------------------------------|
A|--10-10-10-10-10-10-10-10-10-10-10-10-10-10--------------------------------|
E|--8--8--8--8--8--8--8--8--8--8--8--8--8--8---------------------------------|
Don't be too cocky...

e|---------------------------------------------------------------------------|
B|---------------------------------------------------------------------------|
G|---------------------------------------------------------------------------|
D|--6666666-8888888-10-10-10-10-10-10-10-10-10-10-10-10-10-10----------------|
A|--6666666-8888888-10-10-10-10-10-10-10-10-10-10-10-10-10-10----------------|
E|--4444444-6666666-8--8--8--8--8--8--8--8--8--8--8--8--8--8-----------------|
Together now whatever...

e|---------------------------------------------------------------------------|
B|---------------------------------------------------------------------------|
G|---------------------------------------------------------------------------|
D|--6666666-8888888-10\------------------------------------------------------|
A|--6666666-8888888-10\------------------------------------------------------|
E|--4444444-6666666-8-\------------------------------------------------------|
He'll be forever...

| /  slide up
| \  slide down
| h  hammer-on
| p  pull-off
| ~  vibrato
| +  harmonic
| x  Mute note
===============================================================================
Добавлено: 31.07.2012
Другие материалы по этой песне:
  • Аккорды и текст

Страница создана 12.05.2012
http://primanota.ru/frenzal-rhomb/forever-malcolm-young-chords.htm
Привет, Гость.
Предлагаем пройти революционный курс по гитаре.
Подарок от PrimaNota.Ru, забирай!