PrimaNota.ru - самый крупный в мире бесплатный архив песенных текстов, аккордов, табулатур и нот


Frenzal Rhomb - Dont Let The Bastards Keep You Down - текст песни, таба, видео

Регистрация Запомнить меня
Войти через:  Facebook Google Twitter Vk Yandex Mail.ru

Frenzal Rhomb - Dont Let The Bastards Keep You Down - текст песни, таба, видео

Печатать
Просмотров: 139
Author/Artist: Frenzal Rhomb
Title: Don't Let The Bastards Keep You Down
Album: Shut Your Mouth
Transcribed by: Luke Lundberg
Email: kane_72@hotmail.com

hey, this is mostly correct but there is sure to be errors somewhere, send in corrections if u wish. i
'll only put the chords, u work out the rythem. also, there is some p.m on some chords, u can work out which which is which. q's or comments, email me :-) shit, one more note i almost forgot to add.. during the verse when it goes B B# G B# G, u probably think this is wrong, however u can clearly hear jay or lindsay playing this, later on in the song when he plays the verse palm muted. if that didn't make sense, just email me and i'll explain it more in depth, cheers. one more thing. after u have done the bit when it is p.m, the bridge as i would call it, do it unmuted, then go back to the verse and do that muted and after that do the chorus a couple of times and that's it!!!!!!! cya.

------------------------------------------------------------------------------
------------------------------------------------------------------------------
------------------------------------------------------------------------------
------------------------------------------------------------------------------
------------------------------------------------------------------------------
-0-5-4-3-3-4-5-0--0-5-4-3-3-4-5-0---------------------------------------------
 this is as close as i could get, it is wrong though :-(                      

------------------------------------------------------------------------------
------------------------------------------------------------------------------
------5--------5----3-4---4----------5-------5---3-4-4-4----------------------
-2--5-5-5-2--5-5-5--3-4-5-4-5---2--5-5-5-2-5-5-5-3-4-4-4----------------------
-2--5-3-5-2--5-3-5--1-2-5-2-5---2--5-3-5-2-5-3-5-1-2-2-2----------------------
-0--3---3-0--3---3------3---3---0--3---3-0-3---3------------------------------
  ever felt you've been at...                                                 

------------------------------------------------------------------------------
------------------------------------------------------------------------------
-5---9------------------------------------------------------------------------
-5---9---7---3----------------------------------------------------------------
-3---7---7---3----------------------------------------------------------------
---------5---1----------------------------------------------------------------
 don't let the bastards keep you down...                                      

------------------------------------------------------------------------------
------------------------------------------------------------------------------
----4--5--9--7-8--------------------------------------------------------------
-7--4--5--9--7-8--------------------------------------------------------------
-7--2--3--7--5-6--------------------------------------------------------------
-5----------------------------------------------------------------------------
 go bak to verse, then to chorus then to intro, then to this p.m part.        

Добавлено: 10.03.2012
Другие материалы по этой песне:
  • Аккорды и текст

Страница создана 10.03.2012
http://primanota.ru/frenzal-rhomb/dont-let-the-bastards-keep-you-down-chords.htm
Привет, Гость.
Предлагаем пройти революционный курс по гитаре.
Подарок от PrimaNota.Ru, забирай!