PrimaNota.ru - самый крупный в мире бесплатный архив песенных текстов, аккордов, табулатур и нот


Frenzal Rhomb - Bird Attack - таба, видео

Регистрация Запомнить меня
Войти через:  Facebook Google Twitter Vk Yandex Mail.ru

Frenzal Rhomb - Bird Attack - таба, видео

Печатать
Просмотров: 122
  ARTIST : FRENZAL RHOMB
  ALBUM  : SMOKO AT THE PET FOOD FACTORY
  SONG   : BIRD ATTACK


  Best band to come out of this redneck wonderland we call Australia!

  PUNX TIL DEATH!!!!!!

  (Let ring then pick scrape)
   Intro   Verse   bird attack! bird attack!
e |-------|----------------------------------------------|Repeat
B |-------|----------------------------------------------|
G |---5---|---8-8--5-5--8-8--5-5--1010-------1010--------|
D |---5---|---8-8--5-5--8-8--5-5--1010--6-6--1010--6-6---|
A |---3---|---6-6--3-3--6-6--3-3--8-8---6-6--8-8---6-6---|
E |---3---|-----------------------------4-4--------4-4---|
    
      C       D#   C    D#   C    F     G#   F     G#


   Chorus     attack!!               (Let ring then pick scrape)
e |------------------------------------------------------|
B |------------------------------------------------------|
G |---5---5----5---5----5---5----5---5-------------------|
D |---5---5----5---5----5---5----5---5-------------------|
A |---3---3----3---3----3---3----3---3-------------------|
E |---3---3----3---3----3---3----3---3-------------------|
      C   C    C   C    C   C    C   C



   Bridge/Thrash riff           ....       ....       ....
e |---------------------------------------------------------|
B |---------------------------------------------------------|  
G |---8--7--5--7--8--7--3--3/5--5555--3/5--5555--3/5--5555--|
D |---8--7--5--7--8--7--3--3/5--5555--3/5--5555--3/5--5555--|
A |---6--5--3--5--6--5--1--1/3--5555--1/3--3333--1/3--3335--|
E |---6--5--3--5--6--5--1--1/3--3333--1/3--3333--1/3--3333--| **

      D# D  C  D  D#F  F  D# A# A#C  C     A#C  C     A#C  C                                 
                                     
 **Not completely happy with this bit, The Doc plays like a madman and will change
   random notes and strum patterns alot in his riffs if you listen closely. Use this
   piece as a guide if anyone has nailed it email me.  
   
  batteryacid88@yahoo.com.au
  
  Tabbed by SATAN'S SLAVE                 
   
Добавлено: 25.10.2013
Другие материалы по этой песне:

Страница создана 28.09.2013
http://primanota.ru/frenzal-rhomb/bird-attack-chords.htm
Привет, Гость.
Предлагаем пройти революционный курс по гитаре.
Подарок от PrimaNota.Ru, забирай!