PrimaNota.ru - самый крупный в мире бесплатный архив песенных текстов, аккордов, табулатур и нот


Frenzal Rhomb - Ballad Of Tim Webster - текст песни, таба, видео

Регистрация Запомнить меня
Войти через:  Facebook Google Twitter Vk Yandex Mail.ru

Frenzal Rhomb - Ballad Of Tim Webster - текст песни, таба, видео

Печатать
Просмотров: 112
Song: The Ballad of Tim Webster
Band: Frenzal Rhomb
Album: Meet The Family
Guitars: 1, light distortion
Tuning: standard (EADGBE)
Tabbed by: Milo
Notes: enjoy
Legend:
	h  Hammer-on
	s  Slide
	~  Sustain

Intro & 1st Verse:

Time for our Play of the Day and it's a case of being torn between two loves,
an age old problem, what comes first, the beer or the ball...

 |--------------|--------------|
 |--------------|--------------|
 |--------------|--------------|
 |--------------|--------------|
 |--9----7-12-9-|-9-----7---5--|
 |-----10-------|----10---5----|

 |--------------|--------------|----------------|--------------------|
 |--------------|--------------|----------------|--------------------|
 |--------------|--------------|----------------|--------------------|
 |--------------|--------------|----------------|--------------------|
 |--9----7-12-9-|-9-----7------|-9-10-9--9-10-9-|----9-10-9h12-10-9--|
 |-----10-------|----10---5-3~-|----------------|-10-----------------|


 |--------------|--------------|
 |--------------|--------------|
 |--------------|--------------|
 |--------------|--------------|
 |--9----7-12-9-|-9-----7---5--|
 |-----10-------|----10---5----|

 |--------------|---------------|----------------|----------------|
 |--------------|---------------|----------------|----------------|
 |--------------|---------------|----------------|----------------|
 |--------------|---------------|----------------|----------------|
 |--9----7-12-9-|-9-----9-12-14-|-14----12-------|-12-9-12-14-14--|
 |-----10-------|----10---------|----14----12-14-|----------------|

 |----------------|----------------|
 |----------------|----------------|
 |----------------|----------------|
 |----------------|----------------|
 |-14----12-------|-12-9-12-14-14~-|
 |----14----12-14-|----------------|

 |-----------------|-----------------|
 |-----------------|-----------------|
 |-----------------|-----------------|
 |-----------------|-----------------|
 |--12~--9~---7~---|--5~--------5~---|
 |-----------------|-------7~--------|

 |--------------|--------------|
 |--------------|--------------|
 |--------------|--------------|
 |--------------|--------------|
 |--9----7-12-9-|-9-----7---5--|
 |-----10-------|----10---5----|

 |--------------|----------3~--|----3~---------|-----------------3--|
 |--------------|----------3~--|----3~---------|-----------------3--|
 |--------------|----------4~--|----4~---------|-----------------4--|
 |--------------|----------5~--|---------------|-----------------5--|
 |--9----7-12-9-|-9----7---5~--|---------------|-----------------5--|
 |----10--------|---10---5-3~--|---------------|-----------------3--|
                             You remind me of a god, you are my hero

 |--------------|--------------|-7~------------|-3~------------|
 |--------------|--------------|-7~------------|-3~------------|
 |--------------|--------------|-8~------------|-4~------------|
 |--------------|--------------|-9~------------|-5~------------|
 |--9----7-12-9-|-9----9-12-15-|-9~------------|-5~------------|
 |----10--------|---10---------|-7~------------|-3~------------|
					   An authority on all and sundry

 |-7~---------------|-3~-----------------|
 |-7~---------------|-3~-----------------|
 |-8~---------------|-4~-----------------|
 |-9~---------------|-5~-----------------|
 |-9~---------------|-5~-----------------|
 |-7~---------------|-3~-----------------|
  It's remarkable your depth of knowledge

 |--------------------------------|
 |--------------------------------|
 |--------------------------------|
 |--9--9--7--------------------5--|
 |--9--9--7--------------------5--|
 |--7--7--5--------------------3--|
 something's wrong with your eyes

Chorus:

 |--------------|--------------|
 |--------------|--------------|
 |--------------|--------------|
 |--------------|--------------|
 |--9----7-12-9-|-9-----7---5--|
 |-----10-------|----10---5----|

 |---------------|--------------|
 |---------------|--------------|
 |---------------|--------------|
 |---------------|----------5---|
 |--9----9-12-9--|-9----7---5---|
 |----10---------|---10---5-3---|

 |----------------|-----------------------|
 |----------------|-----------------------|
 |----------------|-----------------------|
 |--5--9--10--12--|--9-10-12/13/14/15/16--|
 |--5--9--10--12--|--9-10-12/13/14/15/16--|
 |--3--7--9---10--|--7-9--10/11/12/13/14--|
   what are           something's
    they protecting       wrong with 
          you from           your eyelids

Outro:

 |--------------|--------------|
 |--------------|--------------|
 |--------------|--------------|
 |--------------|--------------|
 |--9----7-12-9-|-9-----7---5--|
 |-----10-------|----10---5----|

 |---------------|----------------|----------|--------|
 |---------------|----------------|----------|--------|
 |---------------|----------------|----------|--------|
 |---------------|----------------|--9-------|--5-----|
 |--9----7-12-9--|--9----9-12-14--|--9-------|--5-----|
 |----10---------|----10----------|--7-------|--3-----|

 |-----|-----|-----|-----|------|
 |-----|-----|-----|-----|------|
 |-----|-----|-----|-----|------|
 |--2--|--4--|--5--|--5--|--9~--|
 |--2--|--4--|--5--|--5--|--9~--|
 |--0--|--2--|--3--|--3--|--7~--|

Very politically incorrect, but very funny

bye
	from Milo
Добавлено: 26.05.2012
Другие материалы по этой песне:
  • Аккорды и текст

Страница создана 29.03.2012
http://primanota.ru/frenzal-rhomb/ballad-of-tim-webster-chords.htm
Привет, Гость.
Предлагаем пройти революционный курс по гитаре.
Подарок от PrimaNota.Ru, забирай!