PrimaNota.ru - самый крупный в мире бесплатный архив песенных текстов, аккордов, табулатур и нот


Frenzal Rhomb - Ball Chef - текст песни, таба, видео

Регистрация Запомнить меня
Войти через:  Facebook Google Twitter Vk Yandex Mail.ru

Frenzal Rhomb - Ball Chef - текст песни, таба, видео

Печатать
Просмотров: 140
Ball Chef – Frenzal Rhomb

Tabbed By Tom-Arto

Intro
|-----------12-9---------9—14br-----------12-9---------0--|
|----------------9-10-12-----------------------9-10-12----|
|---------------------------------------------------------|
|-14-13-11-----------------------14-13-11-----------------|
|-14-13-11-----------------------14-13-11-----------------|
|-12-11-9------------------------12-11-9------------------|

Verse
  E5					G#5
|-------------------------------------------------|
|-------------------------------------------------|
|-------------------------------------------------|
|-14----------------------6-----------------------|
|-14----------------------6-----------------------|
|-12----------------------4-----------------------|
  Morning, Wake up and smell all the breakfast foods that are on offer, 
  A5  			B5			   A5		E5	   
|-------------------------------------------------------|
|-------------------------------------------------------|
|-------------------------------------------------------|
|-7----------------9------------------7------------2----|
|-7----------------9------------------7------------2----|
|-5----------------7------------------5------------0----|
   No one prepared us for what's on the menu; I've never tried this before...

Chorus Part1
|-------------------------------------------------------|
|-------------------------------------------------------|
|-------------------------------------------------------|
|-9----------------------------------6----------7-------|
|-9----------------------------------6----------7-------|
|-7----------------------------------4----------5-------|
Cooking with balls, Who would've thought it could be so normal, Now we know,

Chorus Part2
This is simply the intro riff with “He's a Ball Chef” sung over it (goes 4 times)





Structure
Intro x2
Verse x2
Chorus (includes p1 and p2)
Verse x1
Chorus

Lyrics
Morning,
Wake up and smell all the breakfast foods that are on offer,
No one prepared us for whats on the menu,
I've never tried this before,
If this is the breakfast of champions,
I don't want to be an athlete,
Gastro-testicular bad combination,
At least their not serving them raw.

Cooking with balls,
Who would've thought it could be so normal,
Now we now,
He's a ballchef,
He's a ballchef,
He's a ballchef,
He's a ballchef.

Come in, sit down and please be assured that you,
Won't find a bad ball here,
Culled straight from the rocky mountains, the difference between a bull and a steer. 

Cooking with balls,
Who would've thought it could be so normal,
Now we now,
He's a ballchef,
He's a ballchef,
He's a ballchef,
He's a ballchef.


Добавлено: 21.04.2012
Другие материалы по этой песне:
  • Аккорды и текст

Страница создана 04.03.2012
http://primanota.ru/frenzal-rhomb/ball-chef-chords.htm
Привет, Гость.
Предлагаем пройти революционный курс по гитаре.
Подарок от PrimaNota.Ru, забирай!