PrimaNota.ru - самый крупный в мире бесплатный архив песенных текстов, аккордов, табулатур и нот


Frenzal Rhomb - Back To The Suburbs - таба, видео

Регистрация Запомнить меня
Войти через:  Facebook Google Twitter Vk Yandex Mail.ru

Frenzal Rhomb - Back To The Suburbs - таба, видео

Печатать
Просмотров: 80
Frenzal Rhomb
Back to the Suburbs


There is heaps of lead/ appregiated guitar drenched in heavy distortion going on 
throughout this song
Therefore, you can mix up everything with this track, throw in power chords when 
needed, and have fun playing it!
YEAH FRENZAL!! Marto


INTRO:

         C        D        G
eb|----------------------------------------------------------------|
Bb|----------------------------------------------------------------|
Gb|----------------------------------------------------------------|
Db|--------2--------4----------------------------------------------|
Ab|-----/3---3---/5---5-------2-3~\--------------------------------|
Eb|------------------------/3--------------------------------------|


VERSE 1:

       G                   Em              C          D         G
eb|----3-------------------0---------------0----------2---------3----------|
Bb|----3-------------------0---------------1----------3---------3----------|
Gb|----0-------------------0---------------0----------2---------0----------|
Db|----0-------------------2---------------2----------0---------0----------|
Ab|----2-------------------2---------------3----------0---------2----------|
Eb|----3-------------------0---------------3----------2---------3----------|

      singin, some stupid hate song, in my mind i can hear them now
      braces,   forty year faces,    in my mind i can see  them now


PRE-CHORUS:

                C                   D                  G   Bm  C
eb|-------------0-------------------2------------------3---2---0---------|
Bb|-------------1-------------------3------------------3---3---1---------|
Gb|-------------0-------------------2------------------0---4---0---------|
Db|-------------2-------------------0------------------0---4---2---------|
Ab|-------------3-------------------0------------------2---2---3---------|
Eb|-------------3-------------------2------------------3---2---3---------|

       and you wanted to find some action but it was a bit too loud




CHORUS:
             C            D            G            C
eb|----------0------------2------------3------------0----------------------------|
Bb|----------1------------3------------3------------1----------------------------|
Gb|----------0------------2------------0------------0----------------------------|
Db|----------2------------0------------0------------2----------------------------|
Ab|----------3------------0------------2------------3----------------------------|
Eb|----------3------------2------------3------------3----------------------------|

       move back to the suburbs with  me,       my dear
       we'll make a new home, full of warmth, and cheer
        
             C            D            G    G    G
eb|----------0------------2------------3----3----3----------------------|
Bb|----------1------------3------------3----3----3----------------------|
Gb|----------0------------2------------0----0----0----------------------|
Db|----------2------------0------------0----0----0----------------------|
Ab|----------3------------0------------2----2----2----------------------|
Eb|----------3------------2------------3----3----3----------------------|

        cos too many  ARSEHOLES  have moved in here

              C             D
eb|----------------------------------------------------------------|
Bb|----------------------------------------------------------------|
Gb|----------------------------------------------------------------|
Db|-------------2------------4-------------------------------------|
Ab|----------/3---3-------/5---5-----------------------------------|
Eb|----------------------------------------------------------------|

        move back to the suburbs...


VERSE 2:
       G                  Em              C          D         G
eb|----3-------------------0---------------0----------2---------3---------|
Bb|----3-------------------0---------------1----------3---------3---------|
Gb|----0-------------------0---------------0----------2---------0---------|
Db|----0-------------------2---------------2----------0---------0---------|
Ab|----2-------------------2---------------3----------0---------2---------|
Eb|----3-------------------0---------------3----------2---------3---------|

      prizes,     for advertisers,   in my mind i can see them now
      posers, speak down their noses, in my mind i can hear them now


PRE-CHORUS:

                C                    D                    G   Bm  C
eb|-------------0--------------------2--------------------3---2---0---------|
Bb|-------------1--------------------3--------------------3---3---1---------|
Gb|-------------0--------------------2--------------------0---4---0---------|
Db|-------------2--------------------0--------------------0---4---2---------|
Ab|-------------3--------------------0--------------------2---2---3---------|
Eb|-------------3--------------------2--------------------3---2---3---------|

    I'm  gonna  flick  a  match    over my shoulder as i leave this town


CHORUS:

             C            D            G            C
eb|----------0------------2------------3------------0----------------------------|
Bb|----------1------------3------------3------------1----------------------------|
Gb|----------0------------2------------0------------0----------------------------|
Db|----------2------------0------------0------------2----------------------------|
Ab|----------3------------0------------2------------3----------------------------|
Eb|----------3------------2------------3------------3----------------------------|

       move back to the suburbs with  me,       my dear
       we'll make a new home, full of warmth, and cheer
        

             C            D            G    G    G
eb|----------0------------2------------3----3----3----------------------|
Bb|----------1------------3------------3----3----3----------------------|
Gb|----------0------------2------------0----0----0----------------------|
Db|----------2------------0------------0----0----0----------------------|
Ab|----------3------------0------------2----2----2----------------------|
Eb|----------3------------2------------3----3----3----------------------|

        cos too many  ARSEHOLES  have moved in here

              C             D
eb|----------------------------------------------------------------|
Bb|----------------------------------------------------------------|
Gb|----------------------------------------------------------------|
Db|-------------2------------4-------------------------------------|
Ab|----------/3---3-------/5---5-----------------------------------|
Eb|----------------------------------------------------------------|

        move back to the suburbs...


SOLO:

(solo is played on some hectic low tuned guitar, so if you are just
one guitarist play the low parts an octave higher like i do):

eb|---------------------------------------------------s-----------|
Bb|-----------------------------------------------p----c----------|
Gb|------7~----7------------------0------5-5~~-----i----r---------|
Db|---/9----/9---10-9-5-4~----0-2---2-/5------------c----a--------|
Ab|--------------------------------------------------k----p-------|
Eb|--------------------------------------------------------e------|



eb|----------------------------------------------------------------|
Bb|----------------------------------------------------------------|
Gb|--------------------------------10--10--10----9-9-9---10b-------|
Db|------0~----0-2-2---------------10b-10b-10b---9-9-9---10b-------|
Ab|--0-2-----2-------2---------------------------------------------|
Eb|--------------------0~~-----------------------------------------|


PRE-CHORUS

CHORUS
Добавлено: 12.11.2013
Другие материалы по этой песне:
  • Аккорды и текст

Страница создана 12.11.2013
http://primanota.ru/frenzal-rhomb/back-to-the-suburbs-chords.htm
Привет, Гость.
Предлагаем пройти революционный курс по гитаре.
Подарок от PrimaNota.Ru, забирай!