PrimaNota.ru - самый крупный в мире бесплатный архив песенных текстов, аккордов, табулатур и нот


Frenzal Rhomb - All Hail The Weekend - таба, видео

Регистрация Запомнить меня
Войти через:  Facebook Google Twitter Vk Yandex Mail.ru

Frenzal Rhomb - All Hail The Weekend - таба, видео

Печатать
Просмотров: 108
Author/Artist: Frenzal Rhomb
Title: All Hail The Weekend
Album: Shut Your Mouth (Epitaph release)
Transcribed by: luke lundberg
Email: kane_72@hotmail.com

i worked out this song whilst having strings detuned half a step hence i was doing other shit in that tuning and couldn't be bothered to go back to standard, u could play this in standard if u wanted to but you would have to do the intro differently this ain't my best tab, i couldn't get the solo and can't be fucked and some of the chords are probably wrong.. email me wit comments/querys.

------------------------------------------------------------------------------
-0--4-2-0-2----4-2-0-2----4-2-0-0-3-3-3-2---0--7-5-4-5-0--7-5-4-5-0--7-5-4-0--
------------1----------1------------------------------------------------------
------------------------------------------------------------------------------
------------------------------------------------------------------------------
------------------------------------------------------------------------------
 lead riff                                                                    

------------------------------------------------------------------------------
-3-3-3-2----------------------------------------------------------------------
------------------------------------------------------------------------------
------------------------------------------------------------------------------
------------------------------------------------------------------------------
------------------------------------------------------------------------------
                                                                              

------------------------------------------------------------------------------
------------------------------------------------------------------------------
-4---6---9--------------------------------------------------------------------
-4---6---9---9---12-11--------------------------------------------------------
-2---4---7---9---12-11--------------------------------------------------------
-------------7---10-9---------------------------------------------------------
 rythem during intro                                                          

------------------------------------------------------------------------------
------------------------------------------------------------------------------
----6-----13--9--4--6---------------------------------------------------------
-4--6-----13--9--4--6---------------------------------------------------------
-4--4-----11--7--2--4---------------------------------------------------------
-2----------------------------------------------------------------------------
 "kneel down, to the one.."   hefty palm muting on the first 2 chords         

------------------------------------------------------------------------------
------------------------------------------------------------------------------
-4--11--6---------------------------------------------------------------------
-4--11--6---------------------------------------------------------------------
-2--9---4---------------------------------------------------------------------
------------------------------------------------------------------------------
 "looking forward to the nightmare of another week.."                         

------------------------------------------------------------------------------
------------------------------------------------------------------------------
-------6--4-------------------------------------------------------------------
-4--6--6--4-------------------------------------------------------------------
-4--6--4--2-------------------------------------------------------------------
-2--4-------------------------------------------------------------------------
 "mondays made for fighting..."                                               

------------------------------------------------------------------------------
------------------------------------------------------------------------------
----6--4--11--6---------------------------------------------------------------
-4--6--4--11--6---------------------------------------------------------------
-4--4--2--9---4---------------------------------------------------------------
-2----------------------------------------------------------------------------
 "laugh, your not alone..."                                                   

------------------------------------------------------------------------------
------------------------------------------------------------------------------
----6---13--9--4--6-----------------------------------------------------------
-4--6---13--9--4--6-----------------------------------------------------------
-4--4---11--7--2--4-----------------------------------------------------------
-2----------------------------------------------------------------------------
 "break down, it's not too late.."                                            

------------------------------------------------------------------------------
------------------------------------------------------------------------------
--4--6--11--7-----------------------------------------------------------------
--4--6--11--7-----------------------------------------------------------------
--2--4--9---9-----------------------------------------------------------------
------------------------------------------------------------------------------
 "all hail the weekend, means no difference to me.."                          

------------------------------------------------------------------------------
------------------------------------------------------------------------------
---11--9----------------------------------------------------------------------
---11--9----------------------------------------------------------------------
---9---7----------------------------------------------------------------------
------------------------------------------------------------------------------
  "where it ends is still a mystery"                                          


Добавлено: 21.02.2012
Другие материалы по этой песне:
  • Аккорды и текст

Страница создана 21.02.2012
http://primanota.ru/frenzal-rhomb/all-hail-the-weekend-chords.htm
Привет, Гость.
Предлагаем пройти революционный курс по гитаре.
Подарок от PrimaNota.Ru, забирай!