PrimaNota.ru - самый крупный в мире бесплатный архив песенных текстов, аккордов, табулатур и нот


Frenzal Rhomb - 5000 Cigarettes - таба, видео

Регистрация Запомнить меня
Войти через:  Facebook Google Twitter Vk Yandex Mail.ru

Frenzal Rhomb - 5000 Cigarettes - таба, видео

Печатать
Просмотров: 128
  ARTIST : FRENZAL RHOMB
  ALBUM  : SMOKO AT THE PET FOOD FACTORY
  SONG   : 5000 CIGARETTES

  Awesome fun to play along with. PUNX THE BEST FUCK THE REST!!

  TUNING : Eb/D# Standard (half step)

  Just listen for strumming, notes included if you want to play in E

    
    Verse
 eb|-------------------------------------------------------------------|
 Bb|------------------------pause--------------------------------------|
 Gb|--9999x-7777x-9999x-7777x--11111111x-7777x--9999x------------------|
 Db|--9999--7777--9999--7777---11111111--7777---9999-------------------|
 Ab|--7777--5555--7777--5555---9-9-9-9---5555---7777-------------------|
 Eb|-------------------------------------------------------------------|
      D#    C#    D#    C#     F        C#      D#  p.m. briefly then open 
                                                    back up before chorus


    Chorus                  Repeat           
 eb|-------------------------------------------------------------------|
 Bb|-------------------------------------------------------------------|
 Gb|--7777x-9999x-------7777x--------------------------7777x-----------|
 Db|--7777--9999--7777x-7777---------4444x-2222x-4444x-7777------------|
 Ab|--5555--7777--7777--5555---------4444--2222--4444--5555------------|
 Eb|--------------5555---------------2222--0000--2222------------------|
      C#    D#    A#    C#           F     D#    F     C#

  

    Bridge (1st time)     let chords ring
 eb|-------------------------------------------------------------------|
 Bb|-------------------------------------------------------------------|
 Gb|--11--9---11--9----------------------------------------------------|
 Db|--11--9---11--9----------------------------------------------------|
 Ab|--9---7---9---7-------<--<--<--------------------------------------|
 Eb|--9---7---9---7-------<--<--<------Pick scrape-up------------------|
      F   D#  F   D#
  

    Verse
   

    Chorus



    Bridge (2nd time)        |           Repeat|  Pre chorus build up 
 eb|-------------------------|-----------------|-----------------------|
 Bb|-------------------------|-----------------|-----------------------|
 Gb|--11--9---11--9-------7--|--7---9-------7--|-----------------9999x-|
 Db|--11--9---11--9---7---7--|--7---9---7---7--|--4444-2222-4444-9999--|
 Ab|--9---7---9---7---7---5--|--5---7---7---5--|--4444-2222-4444-7777--|
 Eb|--9---7---9---7---5---5--|--5---7---5---5--|--2222-0000-2222-------|
      F   D#  F   D#  A#  C# |  C#  D#  A#  C# |  F    D#   F    D#  
                                                  pm.. .... .... ..open up then pause

    Chorus


    Pre chorus


    Chorus


    End.

   
   Tabbed by SATAN'S SLAVE
   Hate mail to batteryacid88@yahoo.com.au
Добавлено: 21.08.2013
Другие материалы по этой песне:
  • Аккорды и текст

Страница создана 21.08.2013
http://primanota.ru/frenzal-rhomb/5000-cigarettes-chords.htm
Привет, Гость.
Предлагаем пройти революционный курс по гитаре.
Подарок от PrimaNota.Ru, забирай!