PrimaNota.ru - самый крупный в мире бесплатный архив песенных текстов, аккордов, табулатур и нот


French Dudes - Where You Should Be - аккорды и текст, видео

Регистрация Запомнить меня
Войти через:  Facebook Google Twitter Vk Yandex Mail.ru

French Dudes - Where You Should Be - аккорды и текст, видео

Печатать
Просмотров: 72
Where You Should Be
French Dudes
artist : french dudes
song : Where you should be
Songwriter : F Corbeil
Writer : Luis Louis Is Dagenais

This song is pretty easy. Pick up a guitar and with a little practice you 
can play it nice. This song is played with accoustic guitar. But you can 
play it with an electric but it's not exactly the same. After the second 
chorus you play the same chord but one cord lower. It will be soon on the 
internet.
Enjoy!

Verse
|-7----------|    x5
|-7----------|
|-7----------|
|-9----------|
|-9----------|
|-7----------|

|-3----------|   x2
|-3----------|
|-3----------|
|-5----------|
|-5----------|
|-3----------|

|-5----------|   x5
|-5----------|
|-5----------|
|-7----------|
|-7----------|
|-5----------|

|-3----------|  x2
|-3----------|
|-3----------|
|-5----------|
|-5----------|
|-5----------|


Bridge : Em C G D
Chorus : E A G C

     
Добавлено: 13.09.2013
Вам также может быть интересно:
Другие материалы по этой песне:
  • Аккорды и текст

Страница создана 13.09.2013
http://primanota.ru/french-dudes/where-you-should-be-chords.htm
Привет, Гость.
Предлагаем пройти революционный курс по гитаре.
Подарок от PrimaNota.Ru, забирай!