PrimaNota.ru - самый крупный в мире бесплатный архив песенных текстов, аккордов, табулатур и нот


Frei Wild - Feuer Erde Wasser Luft - таба, видео

Регистрация Запомнить меня
Войти через:  Facebook Google Twitter Vk Yandex Mail.ru

Frei Wild - Feuer Erde Wasser Luft - таба, видео

Печатать
Просмотров: 92
Frei.Wild - Feuer, Erde, Wasser, Luft - Guitar Tab


Intro :
e|--------------------------------------|
B|--------------------------------------|
G|--------------------------------------|
D|---5-----7----2-2--2-2--2-2--2-2--2-2-|
A|-3---3-5---5--2-2--2-2--2-2--2-2--2-2-|
E|--------------0-0--0-0--0-0--0-0--0-0-|


MainRiff :
e|---------------------------------------------------------------------------|
B|---------------------------------------------------------------------------|
G|-4-4--4-4--4-4--4-4--4-4--7-7--7-7--7-7--7-7--7-7--9-9--9-9--9-9--9-9--9-9-|
D|-4-4--4-4--4-4--4-4--4-4--7-7--7-7--7-7--7-7--7-7--9-9--9-9--9-9--9-9--9-9-|
A|-2-2--2-2--2-2--2-2--2-2--5-5--5-5--5-5--5-5--5-5--7-7--7-7--7-7--7-7--7-7-|
E|---------------------------------------------------------------------------|



Verse : (play all Palm Mute in Verse)  play it 4 times
e|--------------------------------------------------------------------|
B|--------------------------------------------------------------------|
G|--------------------------------------------------------------------| x4
D|----------------------------------5-5-5-5-5-5-5-5-5-5-5-5-5-5-5-5---|
A|-2-2-2-2-2-2-2-2-2-2-2-2-2-2-2-2--3-3-3-3-3-3-3-3-3-3-3-3-3-3-3-3---|
E|-0-0-0-0-0-0-0-0-0-0-0-0-0-0-0-0------------------------------------|

then play this : play it 2 times
e|-----------------|
B|-----------------|
G|-----------------|x2
D|-----------------|
A|-2-2-2-2-2-2-2-2-|
E|-0-0-0-0-0-0-0-0-|

and then play this 4 times
e|------------------|
B|------------------|
G|------------------|x4
D|------------------|
A|-7-7-7-7-7-7-7-7--|
E|-5-5-5-5-5-5-5-5--|

then play this
e|-----------------|
B|-----------------|
G|-----------------|
D|-----------------|
A|-2-2-2-2-2-2-2-2-|
E|-0-0-0-0-0-0-0-0-|

Chorus 1 :

e|---------------------------------------------------------------------------|
B|---------------------------------------------------------------------------|
G|-9------5-------------7------9------5--------------------------------------|
D|-9------5------5------7------9------5--------------------------------------|
A|-7------3------5------5------7------3--------------------------------------|
E|---------------3-----------------------------------------------------------|


play this Palm Mute
e|---------------------------------------------------------------------------|
B|---------------------------------------------------------------------------|
G|--------------------------7-7-7-7-7-7-7-7----------------------------------|
D|-5-5-5-5-5-5-5-5----------7-7-7-7-7-7-7-7----------------------------------|
A|-5-5-5-5-5-5-5-5----------5-5-5-5-5-5-5-5----------------------------------|
E|-3-3-3-3-3-3-3-3-----------------------------------------------------------|


play this not Palm Mute
e|---------------------------------------------------------------------------|
B|---------------------------------------------------------------------------|
G|-9-9-9--9-9-9--5-5-5--5-5-5----------------7-7-7--7-7-7--7-7-7--7-7-7------|
D|-9-9-9--9-9-9--5-5-5--5-5-5--5-5-5--5-5-5--7-7-7--7-7-7--7-7-7--7-7-7------|
A|-7-7-7--7-7-7--3-3-3--3-3-3--5-5-5--5-5-5--5-5-5--5-5-5--5-5-5--5-5-5------|
E|-----------------------------3-3-3--3-3-3----------------------------------|


MainRiff again

then Verse again

Chorus 2 :


e|---------------|
B|---------------|
G|-9------5------|
D|-9------5------|
A|-7------3------|
E|---------------|

e|---------------------------------------------------------|
B|---------------------------------------------------------|
G|-9-9-9--9-9-9--5-5-5--5-5-5----------------7-7-7--7-7-7--|
D|-9-9-9--9-9-9--5-5-5--5-5-5--5-5-5--5-5-5--7-7-7--7-7-7--|
A|-7-7-7--7-7-7--3-3-3--3-3-3--5-5-5--5-5-5--5-5-5--5-5-5--|
E|-----------------------------3-3-3--3-3-3----------------|


e|---------------------------------------------------------------------------|
B|---------------------------------------------------------------------------|
G|-9-9-9--9-9-9--5-5-5--5-5-5----------------7-7-7--7-7-7--7-7-7--7-7-7------|
D|-9-9-9--9-9-9--5-5-5--5-5-5--5-5-5--5-5-5--7-7-7--7-7-7--7-7-7--7-7-7------|
A|-7-7-7--7-7-7--3-3-3--3-3-3--5-5-5--5-5-5--5-5-5--5-5-5--5-5-5--5-5-5------|
E|-----------------------------3-3-3--3-3-3----------------------------------|

Solo :
     (Vibrato Part : play all Vibrato)
e|---------------------------------------------------------------------------|
B|--5-5-5-5-5-5--7-7-7-7-7-7--10-10-10-10-10-10------------------------------|
G|---------------------------------------------------------------------------|
D|---------------------------------------------------------------------------|
A|---------------------------------------------------------------------------|
E|---------------------------------------------------------------------------|



e|---------------------------------------------------------------------------|
B|---------------8-10-8---8--11-11-11-11-11-11-11-11-11-11-10-8-10-8-5-------|
G|-------7-9-7-9--------9----------------------------------------------------|
D|-7-7-9---------------------------------------------------------------------|
A|---------------------------------------------------------------------------|
E|---------------------------------------------------------------------------|


                                      (this is the fast part i don't know how
                                       many times you must play it but listen
                                       to the song and you will hear it)
e|----------------------------10--12--12-15-12-15-12-15-12-15-12-15-12-15-|
B|-12-12-12-12-12-12-12-10-12---------------------------------------------|
G|------------------------------------------------------------------------|
D|------------------------------------------------------------------------|
A|------------------------------------------------------------------------|
E|------------------------------------------------------------------------|

Chorus 2

OutroChorus :



e|-------------------------------------------------------------------------|
B|-------------------------------------------------------------------------|
G|-----------------------------------9-9-9-9-9-9-9-9-9-9-9-9-9-9-9-9-------|x3
D|-5-5-5-5-5-5-5-5--7-7-7-7-7-7-7-7--9-9-9-9-9-9-9-9-9-9-9-9-9-9-9-9-------|
A|-3-3-3-3-3-3-3-3--5-5-5-5-5-5-5-5--7-7-7-7-7-7-7-7-7-7-7-7-7-7-7-7-------|
E|-------------------------------------------------------------------------|

e|--------------------------------------------------------------------------|
B|--------------------------------------------------------------------------|
G|-----------------------------------9----------------------------------9---|
D|-5-5-5-5-5-5-5-5--7-7-7-7-7-7-7-7--9----------------------------------9---|
A|-3-3-3-3-3-3-3-3--5-5-5-5-5-5-5-5--7----------------------------------7---|
E|--------------------------------------------------------------------------|

Ende
enjoy this awesome Song :-)
Добавлено: 28.03.2012
Другие материалы по этой песне:
  • Аккорды и текст

Страница создана 28.03.2012
http://primanota.ru/frei-wild/feuer-erde-wasser-luft-chords.htm
Привет, Гость.
Предлагаем пройти революционный курс по гитаре.
Подарок от PrimaNota.Ru, забирай!