PrimaNota.ru - самый крупный в мире бесплатный архив песенных текстов, аккордов, табулатур и нот


Frehleys Comet - Rock Soldiers - таба, бас-таба, видео

Регистрация Запомнить меня
Войти через:  Facebook Google Twitter Vk Yandex Mail.ru

Frehleys Comet - Rock Soldiers - таба, бас-таба, видео

Печатать
Просмотров: 157
Авторы: Ace Frehley, Chip Taylor

-----------------------------------------------------------------------------
                             Rock Soldiers - Frehley's Comet (GUITAR)
          http://www.allmusic.com/album/frehleys-comet-r7792/review    
-----------------------------------------------------------------------------
Tabbed by: Scotto10

Tuning: Standard

=============================================================================



Guitar 1 (Rhythm)



             W                   W                   W                 
E||-------|-------------------|-------------------|-------------------|
B||-------|-------------------|-------------------|-------------------|
G||-------|--9----------------|--L----------------|--5----------------|
D||-------|--9----------------|--L----------------|--5----------------|
A||-------|--7----------------|--L----------------|--3----------------|
E||-------|-------------------|-------------------|-------------------|


  H        E  Q.        W                   W                 
---------------------|-------------------|-------------------|
---------------------|-------------------|-------------------|
--L--------7--7------|--9----------------|--L----------------|
--L--------5--4------|--9----------------|--L----------------|
--L------------------|--7----------------|--L----------------|
---------------------|-------------------|-------------------|


  W                   H        E  Q.        W                 
-------------------|---------------------|-------------------|
-------------------|---------------------|-------------------|
--5----------------|--L--------7--7------|--9----------------|
--5----------------|--L--------5--4------|--9----------------|
--3----------------|--L------------------|--7----------------|
-------------------|---------------------|-------------------|


  W                   W                   H        E  Q.      
-------------------|-------------------|---------------------|
-------------------|-------------------|---------------------|
--L----------------|--5----------------|--L--------7--7------|
--L----------------|--5----------------|--L--------5--4------|
--L----------------|--3----------------|--L------------------|
-------------------|-------------------|---------------------|


  W                   W                   W                 
-------------------|-------------------|-------------------|
-------------------|-------------------|-------------------|
--9----------------|--L----------------|--5----------------|
--9----------------|--L----------------|--5----------------|
--7----------------|--L----------------|--3----------------|
-------------------|-------------------|-------------------|


  H        E  Q.        W                   W                 
---------------------|-------------------|-------------------|
---------------------|-------------------|-------------------|
--L--------7--7------|--9----------------|--L----------------|
--L--------5--4------|--9----------------|--L----------------|
--L------------------|--7----------------|--L----------------|
---------------------|-------------------|-------------------|


  W                   H        E  Q.        W                 
-------------------|---------------------|-------------------|
-------------------|---------------------|-------------------|
--5----------------|--L--------7--7------|--9----------------|
--5----------------|--L--------5--4------|--9----------------|
--3----------------|--L------------------|--7----------------|
-------------------|---------------------|--0----------------|


  W                   W                   H        E  Q.      
-------------------|-------------------|---------------------|
-------------------|-------------------|-----------x--3------|
--L----------------|--5----------------|--2--------x--2------|
--L----------------|--5----------------|--2-----------0------|
--L----------------|--3----------------|--0------------------|
-------------------|-------------------|---------------------|


  W                   W                   W                 
-------------------|-------------------|-------------------|
--5----------------|-------------------|-------------------|
--4----------------|--L----------------|--5----------------|
--2----------------|--L----------------|--5----------------|
-------------------|-------------------|--3----------------|
--0----------------|-------------------|-------------------|


  H        E  Q.        W                   W                 
---------------------|-------------------|-------------------|
-----------x--3------|--5----------------|-------------------|
--2--------x--2------|--4----------------|--L----------------|
--2-----------0------|--2----------------|--L----------------|
--0------------------|-------------------|-------------------|
---------------------|--0----------------|-------------------|


                                                              \1/         NH  
  H.           E  S S    E  H        Q    S S    E   E  E     H           E   
----------------------|-----------------------|------------------------------|
----------------------|-----------------------|------------------------------|
--5------------L--x-x-|--2----------------x-x-|--2p--0-----<>12---------<>L--|
--5------------L--x-x-|--2----------------x-x-|--2p--0-----<>12---------<>L--|
--3------------L------|--0--------------------|------------------------------|
----------------------|-----------------------|------------------------------|


  |--3--| |--3--| |--3--| |--3--| |--3--| |--3--| |--3--| |--3--|  
  S  S  S S  S  S S  S  S S  S  S S  S  S S  S  S S  S  S S  S  S  
------------------------------------------------------------------|
------------------------------------------------------------------|
--4p-2p-0-4p-2p-0-------------------------------------------------|
------------------4p-2p-0-4p-2p-0---------------------------------|
----------------------------------4p-2p-0-4p-2p-0-----------------|
--------------------------------------------------3p-2p-0-3p-2p-0-|


  Q    H.              H        E  E  E  E     W                 
-------0------------|--L--------------------|-------------------|
-------0------------|--L--------------------|-------------------|
--------------------|-----------------7-----|--9----------------|
--------------------|-----------9-----7-----|--9----------------|
--2-----------------|--L--------9-----5-----|--7----------------|
--0-----------------|--L--------7-----------|-------------------|


  H        E  Q.        W                   W                 
---------------------|-------------------|-------------------|
---------------------|-------------------|-------------------|
--L--------7--7------|--9----------------|--L----------------|
--L--------5--4------|--9----------------|--L----------------|
--L------------------|--7----------------|--L----------------|
---------------------|-------------------|-------------------|


  W                   H        E  Q.        W                 
-------------------|---------------------|-------------------|
-------------------|---------------------|-------------------|
--5----------------|--L--------7--7------|--9----------------|
--5----------------|--L--------5--4------|--9----------------|
--3----------------|--L------------------|--7----------------|
-------------------|---------------------|-------------------|


  W                   W                   H        E  Q.      
-------------------|-------------------|---------------------|
-------------------|-------------------|---------------------|
--L----------------|--5----------------|--L--------7--7------|
--L----------------|--5----------------|--L--------5--4------|
--L----------------|--3----------------|--L------------------|
-------------------|-------------------|---------------------|


  W                   W                   W                 
-------------------|-------------------|-------------------|
-------------------|-------------------|-------------------|
--9----------------|--L----------------|--5----------------|
--9----------------|--L----------------|--5----------------|
--7----------------|--L----------------|--3----------------|
-------------------|-------------------|-------------------|


  H        E  Q.        W                   W                 
---------------------|-------------------|-------------------|
---------------------|-------------------|-------------------|
--L--------7--7------|--9----------------|--L----------------|
--L--------5--4------|--9----------------|--L----------------|
--L------------------|--7----------------|--L----------------|
---------------------|--0----------------|-------------------|


  W                   H        E  Q.        W                 
-------------------|---------------------|-------------------|
-------------------|-----------x--3------|--5----------------|
--5----------------|--2--------x--2------|--4----------------|
--5----------------|--2-----------0------|--2----------------|
--3----------------|--0------------------|-------------------|
-------------------|---------------------|--0----------------|


  W                   W                   H        E  Q.      
-------------------|-------------------|---------------------|
-------------------|-------------------|-----------x--3------|
--L----------------|--5----------------|--2--------x--2------|
--L----------------|--5----------------|--2-----------0------|
-------------------|--3----------------|--0------------------|
-------------------|-------------------|---------------------|


  W                   W                   H.           E  S S  
-------------------|-------------------|----------------------|
--5----------------|-------------------|----------------------|
--4----------------|--L----------------|--5------------L--x-x-|
--2----------------|--L----------------|--5------------L--x-x-|
-------------------|-------------------|--3------------L------|
--0----------------|-------------------|----------------------|


                                       \1/         NH  
  E  H        Q    S S    E   E  E     H           E   
-----------------------|------------------------------|
-----------------------|------------------------------|
--2----------------x-x-|--2p--0-----<>12---------<>L--|
--2----------------x-x-|--2p--0-----<>12---------<>L--|
--0--------------------|------------------------------|
-----------------------|------------------------------|


  |-3-| |--3--| |--3--| |--3-| |--3--| |--3--| |--3--| |--3--|  
  S S S S  S  S S  S  S S  S S S  S  S S  S  S S  S  S S  S  S  
---------------------------------------------------------------|
---------------------------------------------------------------|
--4-x-2-4p-2p-0--------------0-4p-2p-0-------------------------|
----------------4p-2p-0----------------4p-2p-0-----------------|
------------------------4p-2-------------------4p-2p-0---------|
-------------------------------------------------------3p-2p-0-|


  Q    H.              H        E  E  E  E     W                 
-------0------------|--L--------------------|-------------------|
-------0------------|--L--------------------|-------------------|
--------------------|-----------4-----7-----|--9----------------|
--------------------|-----------4-----7-----|--9----------------|
--2-----------------|--L--------2-----5-----|--7----------------|
--0-----------------|--L--------------------|-------------------|


     PM PM PM                                                       
  E  E  E  E  E  Q.        Q.     Q    E  Q       W                 
------------------------|----------------------|-------------------|
------------------------|----------------------|-------------------|
--L-----------7--7------|--2------2------------|-------------------|
--L-----------5--4------|--2------2------------|-------------------|
--L---------------------|--0------0-------2----|--L----------------|
-----0--0--0------------|--------------3--0----|--L----------------|


  Q.     Q    E  Q       W                   Q.     Q    E  Q     
----------------------|-------------------|----------------------|
----------------------|-------------------|----------------------|
--2------2------------|-------------------|--2------2------------|
--2------2------------|-------------------|--2------2------------|
--0------0-------2----|--L----------------|--0------0-------2----|
--------------3--0----|--L----------------|--------------3--0----|


  W                   Q.     Q    E  Q       W                   H         
-------------------|----------------------|-------------------|-----------|
-------------------|----------------------|-------------------|-----------|
-------------------|--2------2------------|-------------------|-----------|
-------------------|--2------2-------4----|--L----------------|-----------|
--L----------------|--0------0-------2----|--L----------------|--L--------|
--L----------------|--------------3-------|-------------------|-----------|


  W                   W                   W                   W                 
-------------------|-------------------|-------------------|-------------------|
-------------------|-------------------|-------------------|-------------------|
-------------------|-------------------|--9----------------|--L----------------|
-------------------|-------------------|--9----------------|--L----------------|
-------------------|-------------------|--7----------------|--L----------------|
-------------------|-------------------|-------------------|--0----------------|


  W                   H        E  Q.        W                 
-------------------|---------------------|-------------------|
-------------------|---------------------|-------------------|
--5----------------|--L--------7--7------|--9----------------|
--5----------------|--L--------5--4------|--9----------------|
--3----------------|--L------------------|--7----------------|
-------------------|---------------------|-------------------|


  W                   W                   H        E  Q.      
-------------------|-------------------|---------------------|
-------------------|-------------------|---------------------|
--L----------------|--5----------------|--L--------7--7------|
--L----------------|--5----------------|--L--------5--4------|
--L----------------|--3----------------|--L------------------|
-------------------|-------------------|---------------------|


  W                   W                   W                 
-------------------|-------------------|-------------------|
-------------------|-------------------|-------------------|
--9----------------|--L----------------|--5----------------|
--9----------------|--L----------------|--5----------------|
--7----------------|--L----------------|--3----------------|
-------------------|-------------------|-------------------|


  H        E  Q.        W                   W                 
---------------------|-------------------|-------------------|
---------------------|-------------------|-------------------|
--L--------7--7------|--9----------------|--L----------------|
--L--------5--4------|--9----------------|--L----------------|
--L------------------|--7----------------|--L----------------|
---------------------|-------------------|-------------------|


  W                   H        E  Q.        W                 
-------------------|---------------------|-------------------|
-------------------|---------------------|-------------------|
--5----------------|--L--------7--7------|--9----------------|
--5----------------|--L--------5--4------|--9----------------|
--3----------------|--L------------------|--7----------------|
-------------------|---------------------|-------------------|


  W                   W                   E  Q.     S S  Q     E   
-------------------|-------------------|--------------------------|
-------------------|-------------------|----------------10\-------|
--L----------------|--5----------------|--2---------x-x-----------|
--L----------------|--5----------------|--2---------x-x--7\-------|
--L----------------|--3----------------|--0-----------------------|
-------------------|-------------------|--------------------------|


  W                   W                   W                   W                 
-------------------|-------------------|-------------------|-------------------|
-------------------|-------------------|-------------------|-------------------|
-------------------|-------------------|--9----------------|--L----------------|
-------------------|-------------------|--9----------------|--L----------------|
-------------------|-------------------|--7----------------|--L----------------|
-------------------|-------------------|--0----------------|-------------------|


  W                   H        E  Q.        W                 
-------------------|---------------------|-------------------|
-------------------|-----------x--3------|--5----------------|
--5----------------|--2--------x--2------|--4----------------|
--5----------------|--2-----------0------|--2----------------|
--3----------------|--0------------------|-------------------|
-------------------|---------------------|--0----------------|


  W                   W                   H        E  Q.      
-------------------|-------------------|---------------------|
-------------------|-------------------|-----------x--3------|
--L----------------|--5----------------|--2--------x--2------|
--L----------------|--5----------------|--2-----------0------|
-------------------|--3----------------|--0------------------|
-------------------|-------------------|---------------------|


  W                   W                   W                 
-------------------|-------------------|-------------------|
-------------------|-------------------|-------------------|
--9----------------|--L----------------|--5----------------|
--9----------------|--L----------------|--5----------------|
--7----------------|--L----------------|--3----------------|
--0----------------|-------------------|-------------------|


  H        E  Q.        W                   W                 
---------------------|-------------------|-------------------|
-----------x--3------|--5----------------|-------------------|
--2--------x--2------|--4----------------|--L----------------|
--2-----------0------|--2----------------|--L----------------|
--0------------------|-------------------|-------------------|
---------------------|--0----------------|-------------------|


  W                   H        E  Q.        W                 
-------------------|---------------------|-------------------|
-------------------|-----------x--3------|-------------------|
--5----------------|--2--------x--2------|--9----------------|
--5----------------|--2-----------0------|--9----------------|
--3----------------|--0------------------|--7----------------|
-------------------|---------------------|--0----------------|


  W                   W                   H        E  Q.      
-------------------|-------------------|---------------------|
-------------------|-------------------|-----------x--3------|
--L----------------|--5----------------|--2--------x--2------|
--L----------------|--5----------------|--2-----------0------|
--L----------------|--3----------------|--0------------------|
-------------------|-------------------|---------------------|


  W                   W                  
-------------------|-------------------||
-------------------|-------------------||
--9----------------|--L----------------||
--9----------------|--L----------------||
--7----------------|--L----------------||
--0----------------|-------------------||




=============================================================
=============================================================

lead guitar



                                        |----3---|                        
                          H.            E    E   E      W                 
-------|-------|-------|------------------------12--|--------------------|
-------|-------|-------|--------------------12------|--15----------------|
-------|-------|-------|---------------14b----------|--------------------|
-------|-------|-------|----------------------------|--------------------|
-------|-------|-------|----------------------------|--------------------|
-------|-------|-------|----------------------------|--------------------|


                 |----3---|                                            
   H.            E    E   E      W                                     
-------------------------12--|--------------------|-------------------|
---L-----------------12------|--13----------------|-------------------|
----------------14b----------|--------------------|-------------------|
-----------------------------|--------------------|-------------------|
-----------------------------|--------------------|-------------------|
-----------------------------|--------------------|-------------------|



                                      |----3---|                           
   W                    H.            E    E   E      H.            Q      
--------------------|-------------------------12--|-----------------------|
--15----------------|---L-----------------12------|--13------------12s----|
--------------------|----------------14b----------|-----------------------|
--------------------|-----------------------------|-----------------------|
--------------------|-----------------------------|-----------------------|
--------------------|-----------------------------|-----------------------|


                 |----3---|                        
   H.            E    E   E      W                 
-------------------------12--|--------------------|
--10-----------------12------|--15----------------|
----------------14b----------|--------------------|
-----------------------------|--------------------|
-----------------------------|--------------------|
-----------------------------|--------------------|


                 |----3---|                           
   H.            E    E   E      H.            Q      
-------------------------12--|-----------------------|
---L-----------------12------|--13------------12s----|
----------------14b----------|-----------------------|
-----------------------------|-----------------------|
-----------------------------|-----------------------|
-----------------------------|-----------------------|


                 |----3---|                                             
   H.            E    E   E      H.           Q                         
-------------------------12--|---------------------|-------------------|
--10-----------------12------|--15-----------------|-------------------|
----------------14b----------|---------------------|-------------------|
-----------------------------|---------------------|-------------------|
-----------------------------|---------------------|-------------------|
-----------------------------|---------------------|-------------------|





                |----3---|                                         |----3---|   
  H.            E    E   E      W                    H.            E    E   E   
------------------------12--|--------------------|-------------------------12--|
--------------------12------|--15----------------|---L-----------------12------|
---------------14b----------|--------------------|----------------14b----------|
----------------------------|--------------------|-----------------------------|
----------------------------|--------------------|-----------------------------|
----------------------------|--------------------|-----------------------------|


   W                                                         
--------------------|-------------------|-------------------|
--13----------------|-------------------|-------------------|
--------------------|-------------------|-------------------|
--------------------|-------------------|-------------------|
--------------------|-------------------|-------------------|
--------------------|-------------------|-------------------|




                                      |----3---|                           
   W                    H.            E    E   E      H.            Q      
--------------------|-------------------------12--|-----------------------|
--15----------------|---L-----------------12------|--13------------12s----|
--------------------|----------------14b----------|-----------------------|
--------------------|-----------------------------|-----------------------|
--------------------|-----------------------------|-----------------------|
--------------------|-----------------------------|-----------------------|


                 |----3---|                        
   H.            E    E   E      W                 
-------------------------12--|--------------------|
--10-----------------12------|--15----------------|
----------------14b----------|--------------------|
-----------------------------|--------------------|
-----------------------------|--------------------|
-----------------------------|--------------------|


                 |----3---|                           
   H.            E    E   E      H.            Q      
-------------------------12--|-----------------------|
---L-----------------12------|--13------------12s----|
----------------14b----------|-----------------------|
-----------------------------|-----------------------|
-----------------------------|-----------------------|
-----------------------------|-----------------------|


                 |----3---|                        
   H.            E    E   E      W                 
-------------------------12--|--------------------|
--10-----------------12------|--15----------------|
----------------14b----------|--------------------|
-----------------------------|--------------------|
-----------------------------|--------------------|
-----------------------------|--------------------|


                                                      \1/                 
                 |----3---|                                               
   H.            E    E   E      W                    Q.     Q    Q.      
-------------------------12--|--------------------|----------------------|
---L-----------------12------|--13----------------|--13------------------|
----------------14b----------|--------------------|----------------------|
-----------------------------|--------------------|----------------------|
-----------------------------|--------------------|----------------------|
-----------------------------|--------------------|----------------------|





                                                     PH                      
       S S S S S S E  S  Q.      S    S T  T  T  T   S   S S  S H         S  
----|-------------------10b--------|-------------------------10-9b----------|
----|----8-8-7-8-7-8-------------8-|--L-------------------------------------|
----|----9-9-7-9-7-9-------------9-|--L-9p-7h-9p-7-<>9br-7------------------|
----|------------------------------|-----------------------9----------------|
----|------------------------------|----------------------------------------|
----|------------------------------|----------------------------------------|


  S S E  S Q.      Q     S     E    E.   E.    E    Q      E   
----------------------------|---------------------------------|
--8-8-7--8---------------3--|--5----8----7-----8---10---------|
--9-9-7--9---------------5b-|--7b--10b---9b---10b--12b----12--|
-----------7b------5~-------|---------------------------------|
----------------------------|---------------------------------|
----------------------------|---------------------------------|


   Q.       S   S  S   S  E    Q      
-------------------------------------|
--12-----------12-15p-12-12---12-----|
--14b------14b-----------14b--14b----|
-------------------------------------|
-------------------------------------|
-------------------------------------|


        |---3--|       |---3--|                                                 
   E    S  S   S  E    S  S   S  Q.       S     S     H.             E     E    
--------------------------------15b------17pbr-15-|--17b-------------Lpb--17b--|
--12---12-15p-12-12---12-15p-12-------------------|----------------------------|
--14b------------14b------------------------------|----------------------------|
--------------------------------------------------|----------------------------|
--------------------------------------------------|----------------------------|
--------------------------------------------------|----------------------------|


   H           E.    E.    E       W                      W                   
---Lpb--------22b---22b---22b--|---Lpb----------------|---Lpb----------------|
-------------------------------|----------------------|----------------------|
-------------------------------|----------------------|----------------------|
-------------------------------|----------------------|----------------------|
-------------------------------|----------------------|----------------------|
-------------------------------|----------------------|----------------------|


                                       |----3---|                        
   W                     H.            E    E   E      W                 
---Lpb----------------|------------------------12--|--------------------|
----------------------|--------------------12------|--15----------------|
----------------------|---------------14b----------|--------------------|
----------------------|----------------------------|--------------------|
----------------------|----------------------------|--------------------|
----------------------|----------------------------|--------------------|


                 |----3---|                                            
   H.            E    E   E      W                                     
-------------------------12--|--------------------|-------------------|
---L-----------------12------|--13----------------|-------------------|
----------------14b----------|--------------------|-------------------|
-----------------------------|--------------------|-------------------|
-----------------------------|--------------------|-------------------|
-----------------------------|--------------------|-------------------|






                                    |----3---|                        
                      H.            E    E   E      W                 
-------------------|------------------------12--|--------------------|
-------------------|--------------------12------|--15----------------|
-------------------|---------------14b----------|--------------------|
-------------------|----------------------------|--------------------|
-------------------|----------------------------|--------------------|
-------------------|----------------------------|--------------------|


                 |----3---|                                            
   H.            E    E   E      W                                     
-------------------------12--|--------------------|-------------------|
---L-----------------12------|--13----------------|-------------------|
----------------14b----------|--------------------|-------------------|
-----------------------------|--------------------|-------------------|
-----------------------------|--------------------|-------------------|
-----------------------------|--------------------|-------------------|






Duration Legend
---------------
W - whole
H - half
Q - quarter
E - 8th
S - 16th
T - 32nd
X - 64th
. - note dotted
|-n-|  - n-tuplets


Tablature Legend
----------------
L - tied note
x - dead note
g - grace note
(n) - ghost note
> - accentuded note
NH - natural harmonic
AH - artificial harmonic
TH - tapped harmonic
SH - semi harmonic
PH - pitch harmonic
h - hammer on
p - pull off
b - bend
br - bendRelease
pb - preBend
pbr - preBendRelease
brb - bendReleaseBend
\n/ - tremolo bar dip
\n - tremolo bar dive
-/n - tremolo bar Release up
/n\ - tremolo bar inverted dip
/n - tremolo bar return
-\n - tremolo bar Release down
S - shift slide
s - legato slide
/ -  slide into from below or out of upwards
\ -  slide into from above or out of downwards
~ - vibrato
W - wide vibrato
tr - trill
TP - tremolo picking
T - tapping
S - slap
P - pop
< - fade in
^ - brush up
v - brush down

Добавлено: 01.04.2012
Вам также может быть интересно:
Другие материалы по этой песне:

Страница создана 01.04.2012
http://primanota.ru/frehleys-comet/rock-soldiers-chords.htm
Привет, Гость.
Предлагаем пройти революционный курс по гитаре.
Подарок от PrimaNota.Ru, забирай!