PrimaNota.ru - самый крупный в мире бесплатный архив песенных текстов, аккордов, табулатур и нот


Frehleys Comet - Into The Night - таба, бас-таба, видео

Регистрация Запомнить меня
Войти через:  Facebook Google Twitter Vk Yandex Mail.ru

Frehleys Comet - Into The Night - таба, бас-таба, видео

Печатать
Просмотров: 966
Авторы музыки: Russ Ballard
Авторы текста: Russ Ballard
-----------------------------------------------------------------------------
                           Into the Night - Frehley's Comet (GUITAR)
    http://www.allmusic.com/album/frehleys-comet-r7792/review               
-----------------------------------------------------------------------------
Tabbed by: Scotto10

Tuning: Standard

=============================================================================

              
Guitar 1 (Rhythm)



                     S S Q    S S H           S S Q    S S H         
E||-------|-------|------------------------|------------------------|
B||-------|-------|------------------------|------------------------|
G||-------|-------|--9-9------9-9----------|--9-9------9-9----------|
D||-------|-------|--9-9------9-9----------|--9-9------9-9----------|
A||-------|-------|--7-7------7-7----------|--7-7------7-7----------|
E||-------|-------|------------------------|------------------------|


  S S Q    S S H           S S Q    S S H           S S Q    S S H         
------------------------|------------------------|------------------------|
------------------------|------------------------|------------------------|
--9-9------9-9----------|--9-9------9-9----------|--9-9------9-9----------|
--9-9------9-9----------|--9-9------9-9----------|--9-9------9-9----------|
--7-7------7-7----------|--7-7------7-7----------|--7-7------7-7----------|
------------------------|------------------------|------------------------|


  S S Q    S S H           S S Q    S S Q    E  E     S S Q    S S H         
------------------------|--------------------------|------------------------|
------------------------|--------------------------|------------------------|
--9-9------9-9----------|--9-9------9-9------5--7--|--7--------7-7----------|
--9-9------9-9----------|--9-9------9-9------5--7--|--7--------7-7----------|
--7-7------7-7----------|--7-7------7-7------3--5--|--5--------5-5----------|
------------------------|--------------------------|------------------------|


  S S Q    S S H           S S Q    S S H           S S Q    S S Q    E  E   
------------------------|------------------------|--------------------------|
------------------------|------------------------|--------------------------|
--9-9------9-9----------|--9-9------9-9----------|--9-9------9-9------5--7--|
--9-9------9-9----------|--9-9------9-9----------|--9-9------9-9------5--7--|
--7-7------7-7----------|--7-7------7-7----------|--7-7------7-7------3--5--|
------------------------|------------------------|--------------------------|


  S S Q    S S H           Q    Q    H           W                 
------------------------|---------------------|--2----------------|
------------------------|---------------------|--3----------------|
--7--------7-7----------|--5----7-------------|--2----------------|
--7--------7-7----------|--5----7----2--------|--0----------------|
--5--------5-5----------|--3----5----2--------|-------------------|
------------------------|------------0--------|-------------------|


  W                   W                   W                   W                 
-------------------|--2----------------|-------------------|-------------------|
--1----------------|--3----------------|--1----------------|--1----------------|
--0----------------|--2----------------|--0----------------|--0----------------|
--2----------------|--0----------------|--2----------------|--2----------------|
--3----------------|-------------------|--3----------------|--3----------------|
-------------------|-------------------|-------------------|-------------------|


  W                   Q    E  S S Q    E  S S    H         
--2----------------|--------------------------|-----------|
--3----------------|--------------------------|-----------|
--2----------------|--9----5--7-7-L----L--7-7-|--L--------|
--0----------------|--9----5--7-7-L----L--7-7-|--L--------|
-------------------|--7----3--5-5-L----L--5-5-|--L--------|
-------------------|--------------------------|-----------|


  Q    E  S S Q.     S S    H           Q    Q       Q    E  S S Q    E  S S  
-------------------------|-----------|------------|--------------------------|
-------------------------|-----------|------------|--------------------------|
--7----4--5-5-L------5-5-|--L--------|--5----7----|--9----5--7-7-L----L--7-7-|
--7----4--5-5-L------5-5-|--L--------|--5----7----|--9----5--7-7-L----L--7-7-|
--5----2--3-3-L------3-3-|--L--------|--3----5----|--7----3--5-5-L----L--5-5-|
-------------------------|-----------|------------|--------------------------|


  H           Q    E  S S Q.     S S    H           Q    E  E   
-----------|-------------------------|-----------|-------------|
-----------|-------------------------|-----------|-------------|
--L--------|--7----4--5-5-L------5-5-|--L--------|--5----7-----|
--L--------|--7----4--5-5-L------5-5-|--L--------|--5----7--2--|
--L--------|--5----2--3-3-L------3-3-|--L--------|--3----5--2--|
-----------|-------------------------|-----------|----------0--|


  W                   W                   S S Q    S S H         
-------------------|-------------------|------------------------|
-------------------|-------------------|------------------------|
-------------------|-------------------|--9-9------9-9----------|
--L----------------|--L----------------|--9-9------9-9----------|
--L----------------|--L----------------|--7-7------7-7----------|
--L----------------|--L----------------|------------------------|


  S S Q    S S H           S S Q    S S Q    E  E     S S Q    S S H         
------------------------|--------------------------|------------------------|
------------------------|--------------------------|------------------------|
--9-9------9-9----------|--9-9------9-9------5--7--|--7--------7-7----------|
--9-9------9-9----------|--9-9------9-9------5--7--|--7--------7-7----------|
--7-7------7-7----------|--7-7------7-7------3--5--|--5--------5-5----------|
------------------------|--------------------------|------------------------|


  S S Q    S S H           S S Q    S S H           S S Q    S S Q    E  E   
------------------------|------------------------|--------------------------|
------------------------|------------------------|--------------------------|
--9-9------9-9----------|--9-9------9-9----------|--9-9------9-9------5--7--|
--9-9------9-9----------|--9-9------9-9----------|--9-9------9-9------5--7--|
--7-7------7-7----------|--7-7------7-7----------|--7-7------7-7------3--5--|
------------------------|------------------------|--------------------------|


  S S Q    S S H           Q    Q    H           W                 
------------------------|---------------------|--2----------------|
------------------------|---------------------|--3----------------|
--7--------7-7----------|--5----7-------------|--2----------------|
--7--------7-7----------|--5----7----2--------|--0----------------|
--5--------5-5----------|--3----5----2--------|-------------------|
------------------------|------------0--------|-------------------|


  W                   W                   W                   W                 
-------------------|--2----------------|-------------------|-------------------|
--1----------------|--3----------------|--1----------------|--1----------------|
--0----------------|--2----------------|--0----------------|--0----------------|
--2----------------|--0----------------|--2----------------|--2----------------|
--3----------------|-------------------|--3----------------|--3----------------|
-------------------|-------------------|-------------------|-------------------|


  W                   Q    E  S S Q    E  S S    H         
--2----------------|--------------------------|-----------|
--3----------------|--------------------------|-----------|
--2----------------|--9----5--7-7-L----L--7-7-|--L--------|
--0----------------|--9----5--7-7-L----L--7-7-|--L--------|
-------------------|--7----3--5-5-L----L--5-5-|--L--------|
-------------------|--------------------------|-----------|


  Q    E  S S Q.     S S    H           Q    Q       Q    E  S S Q    E  S S  
-------------------------|-----------|------------|--------------------------|
-------------------------|-----------|------------|--------------------------|
--7----4--5-5-L------5-5-|--L--------|--5----7----|--9----5--7-7-L----L--7-7-|
--7----4--5-5-L------5-5-|--L--------|--5----7----|--9----5--7-7-L----L--7-7-|
--5----2--3-3-L------3-3-|--L--------|--3----5----|--7----3--5-5-L----L--5-5-|
-------------------------|-----------|------------|--------------------------|


  H           Q    E  S S Q.     S S    H           Q    E  E   
-----------|-------------------------|-----------|-------------|
-----------|-------------------------|-----------|-------------|
--L--------|--7----4--5-5-L------5-5-|--L--------|--5----7-----|
--L--------|--7----4--5-5-L------5-5-|--L--------|--5----7--2--|
--L--------|--5----2--3-3-L------3-3-|--L--------|--3----5--2--|
-----------|-------------------------|-----------|----------0--|


  W                   W                   W                   W                 
-------------------|-------------------|-------------------|-------------------|
-------------------|-------------------|-------------------|--1----------------|
-------------------|-------------------|--2----------------|--0----------------|
--L----------------|--L----------------|--2----------------|--2----------------|
--L----------------|--L----------------|--0----------------|--3----------------|
--L----------------|--L----------------|-------------------|-------------------|


  W                   W                   W                   W                 
-------------------|--2----------------|-------------------|-------------------|
--3----------------|--3----------------|--1----------------|--1----------------|
--0----------------|--2----------------|--0----------------|--0----------------|
--0----------------|--0----------------|--2----------------|--2----------------|
-------------------|-------------------|--3----------------|--3----------------|
--3----------------|-------------------|-------------------|-------------------|


  W                   E  E  E  E  E  E  E  E     Q    E  S S Q    E  S S  
--2----------------|--2--2--2--2--2--2--2--2--|--------------------------|
--3----------------|--3--3--3--3--3--3--3--3--|--------------------------|
--2----------------|--2--2--2--2--2--2--2--2--|--9----5--7-7-L----L--7-7-|
--0----------------|--0--0--0--0--0--0--0--0--|--9----5--7-7-L----L--7-7-|
-------------------|--------------------------|--7----3--5-5-L----L--5-5-|
-------------------|--------------------------|--------------------------|


  H           Q    E  S S Q.     S S    H           Q    E  E   
-----------|-------------------------|-----------|-------------|
-----------|-------------------------|-----------|-------------|
--L--------|--7----4--5-5-L------5-5-|--L--------|--5----7-----|
--L--------|--7----4--5-5-L------5-5-|--L--------|--5----7-----|
--L--------|--5----2--3-3-L------3-3-|--L--------|--3----5--2--|
-----------|-------------------------|-----------|----------0--|


  W                   W                   S S Q    S S H         
-------------------|-------------------|------------------------|
-------------------|-------------------|------------------------|
-------------------|-------------------|--9-9------9-9----------|
-------------------|-------------------|--9-9------9-9----------|
--L----------------|--L----------------|--7-7------7-7----------|
--L----------------|--L----------------|------------------------|


  S S Q    S S H           S S Q    S S H           S S Q    S S H         
------------------------|------------------------|------------------------|
------------------------|------------------------|------------------------|
--9-9------9-9----------|--5-5------5-5----------|--7-7------7-7----------|
--9-9------9-9----------|--5-5------5-5----------|--7-7------7-7----------|
--7-7------7-7----------|--3-3------3-3----------|--5-5------5-5----------|
------------------------|------------------------|------------------------|


  S S Q    S S H           S S Q    S S H           S S Q    S S H         
------------------------|------------------------|------------------------|
------------------------|------------------------|------------------------|
--9-9------9-9----------|--9-9------9-9----------|--5-5------5-5----------|
--9-9------9-9----------|--9-9------9-9----------|--5-5------5-5----------|
--7-7------7-7----------|--7-7------7-7----------|--3-3------3-3----------|
------------------------|------------------------|------------------------|


  E  E  E  E  E  E  E  E     Q    E  S S Q    E  S S    H         
--------------------------|--------------------------|-----------|
--------------------------|--------------------------|-----------|
--7--7--7--7--7--7--7--7--|--9----5--7-7-L----L--7-7-|--L--------|
--7--7--7--7--7--7--7--7--|--9----5--7-7-L----L--7-7-|--L--------|
--5--5--5--5--5--5--5--5--|--7----3--5-5-L----L--5-5-|--L--------|
--------------------------|--------------------------|-----------|


  Q    E  S S Q.     S S    H           Q    Q       E  E  E  S S Q    E  S S  
-------------------------|-----------|------------|---------------------------|
-------------------------|-----------|------------|---------------------------|
--7----4--5-5-L------5-5-|--L--------|--5----7----|-----9--5--7-7-L----L--7-7-|
--7----4--5-5-L------5-5-|--L--------|--5----7----|-----9--5--7-7-L----L--7-7-|
--5----2--3-3-L------3-3-|--L--------|--3----5----|-----7--3--5-5-L----L--5-5-|
-------------------------|-----------|------------|---------------------------|


  H           Q    E  S S Q.     S S    H           Q    Q     
-----------|-------------------------|-----------|------------|
-----------|-------------------------|-----------|------------|
--L--------|--7----4--5-5-L------5-5-|--L--------|--5----7----|
--L--------|--7----4--5-5-L------5-5-|--L--------|--5----7----|
--L--------|--5----2--3-3-L------3-3-|--L--------|--3----5----|
-----------|-------------------------|-----------|------------|


  Q    E  S S Q    E  S S    H           Q    E  S S Q.     S S    H         
--------------------------|-----------|-------------------------|-----------|
--------------------------|-----------|-------------------------|-----------|
--9----5--7-7-L----L--7-7-|--L--------|--7----4--5-5-L------5-5-|--L--------|
--9----5--7-7-L----L--7-7-|--L--------|--7----4--5-5-L------5-5-|--L--------|
--7----3--5-5-L----L--5-5-|--L--------|--5----2--3-3-L------3-3-|--L--------|
--------------------------|-----------|-------------------------|-----------|


  Q    Q       Q    E  S S Q    E  S S    H           Q    E  S S Q.     S S  
------------|--------------------------|-----------|-------------------------|
------------|--------------------------|-----------|-------------------------|
--5----7----|--9----5--7-7-L----L--7-7-|--L--------|--7----4--5-5-L------5-5-|
--5----7----|--9----5--7-7-L----L--7-7-|--L--------|--7----4--5-5-L------5-5-|
--3----5----|--7----3--5-5-L----L--5-5-|--L--------|--5----2--3-3-L------3-3-|
------------|--------------------------|-----------|-------------------------|


  H           Q    Q       Q    E  S S Q    E  S S    H         
-----------|------------|--------------------------|-----------|
-----------|------------|--------------------------|-----------|
--L--------|--5----7----|--9----5--7-7-L----L--7-7-|--L--------|
--L--------|--5----7----|--9----5--7-7-L----L--7-7-|--L--------|
--L--------|--3----5----|--7----3--5-5-L----L--5-5-|--L--------|
-----------|------------|--------------------------|-----------|


  Q    E  S S Q.     S S    H           Q    Q       Q    E  S S Q    E  S S  
-------------------------|-----------|------------|--------------------------|
-------------------------|-----------|------------|--------------------------|
--7----4--5-5-L------5-5-|--L--------|--5----7----|--9----5--7-7-L----L--7-7-|
--7----4--5-5-L------5-5-|--L--------|--5----7----|--9----5--7-7-L----L--7-7-|
--5----2--3-3-L------3-3-|--L--------|--3----5----|--7----3--5-5-L----L--5-5-|
-------------------------|-----------|------------|--------------------------|


  H           Q    E  S S Q.     S S    H           Q    Q     
-----------|-------------------------|-----------|------------|
-----------|-------------------------|-----------|------------|
--L--------|--7----4--5-5-L------5-5-|--L--------|--5----7----|
--L--------|--7----4--5-5-L------5-5-|--L--------|--5----7----|
--L--------|--5----2--3-3-L------3-3-|--L--------|--3----5----|
-----------|-------------------------|-----------|------------|


  Q    E  S S Q    E  S S    H           Q    E  S S Q.     S S    H          
--------------------------|-----------|-------------------------|-----------||
--------------------------|-----------|-------------------------|-----------||
--9----5--7-7-L----L--7-7-|--L--------|--7----4--5-5-L------5-5-|--L--------||
--9----5--7-7-L----L--7-7-|--L--------|--7----4--5-5-L------5-5-|--L--------||
--7----3--5-5-L----L--5-5-|--L--------|--5----2--3-3-L------3-3-|--L--------||
--------------------------|-----------|-------------------------|-----------||




====================================================================
====================================================================

lead guitar




                                                  \1/                
      W                     W                     W                  
E||---------------------|---------------------|---------------------|
B||---------------------|---------------------|--15-----------------|
G||---------------------|---------------------|--14b----------------|
D||--14~----------------|---L~----------------|---------------------|
A||---------------------|---------------------|---------------------|
E||---------------------|---------------------|---------------------|


   |---3---|   |---3---|                 
   E   E   E   E   E   E   Q      Q      
----------------------------------------|
--12--12------12--12------12------------|
--12--12------12--12------12~----12\----|
----------14----------14----------------|
----------------------------------------|
----------------------------------------|


  |--3--| |--3--| |--3--|                                                   
  S  S  S S  S  S S  S  S Q.      E  S  S      S  S  S S  S S  H        E   
-------------------------------------------|-------------------------------|
-------------------------------------------|-------------------------------|
--4p-2p-0------------------------------14s-|--12-12s-9-9s-7-7s-9--------L--|
----------4p-2p-0--------------------------|-------------------------------|
------------------3p-2p-0--------------12s-|--10-10s-7-7s-5-5s-7--------L--|
--------------------------2b------0--L-----|-------------------------------|


  H.           Q                                                             
--------------------|-------|-------|-------|-------|-------|-------|-------|
--------------------|-------|-------|-------|-------|-------|-------|-------|
--L-----------------|-------|-------|-------|-------|-------|-------|-------|
--------------------|-------|-------|-------|-------|-------|-------|-------|
--L-----------------|-------|-------|-------|-------|-------|-------|-------|
--------------------|-------|-------|-------|-------|-------|-------|-------|



   H.             E     E         Q     Q.       Q.                       
--12--------------------------|--------------------------|-------|-------|
--15b-------------Lpb---Lpbr--|--15----------------------|-------|-------|
------------------------------|--------14b------14~------|-------|-------|
------------------------------|--------------------------|-------|-------|
------------------------------|--------------------------|-------|-------|
------------------------------|--------------------------|-------|-------|




                           Q      S   S   S   S   S   S.  S.  Q      
-------|-------|-------|--------------------------------------------|
-------|-------|-------|--------------------------------------------|
-------|-------|-------|--14b----14b-14b-14b-14b-14b-14b-14b-14b----|
-------|-------|-------|--------------------------------------------|
-------|-------|-------|--------------------------------------------|
-------|-------|-------|--------------------------------------------|


   Q       T.  T   T   T. T   T  T.  T  T  T. T  T  T. T  T  T. T  T  T. T.  
----------------------------------------------------------------------------|
----------------------------------------------------------------------------|
---Lpb----12h-14p-12s-11-12p-11s-9--11p-9s-7--9p-7s-5--7p-5s-4--5p-4s-2--4--|
----------------------------------------------------------------------------|
----------------------------------------------------------------------------|
----------------------------------------------------------------------------|




                           H         H            H         H          
-------|-------|-------|-----------------------|----------------------|
-------|-------|-------|---8---------7---------|--5---------3---------|
-------|-------|-------|--10b--------9b--------|--7b--------5b--------|
-------|-------|-------|-----------------------|----------------------|
-------|-------|-------|-----------------------|----------------------|
-------|-------|-------|-----------------------|----------------------|


                                                 PH                  
   Q.       H          E       Q.       Q        S    S  S  S  S  S  
---------------------------|----------------------------------------|
--15-------15----------L---|--15-------15---------------------------|
--14b------14b---------Lb--|--14b------14b----<>14br-12-14-12-------|
---------------------------|----------------------------------14-12-|
---------------------------|----------------------------------------|
---------------------------|----------------------------------------|


                                       |----3----|    |----3----|    
   H          H             H          E    E    E    E    E    E    
--12---------14---------|--17---------------------------------------|
--15b--------17b--------|--20b--------20b--20b--20b--20b--20b--20b--|
------------------------|-------------------------------------------|
------------------------|-------------------------------------------|
------------------------|-------------------------------------------|
------------------------|-------------------------------------------|


   Q      E   S.  S. E    E   S. S.  
---------22------22-----------------|
--22b--------22b----22b--24\--------|
------------------------------x--x--|
------------------------------------|
------------------------------------|
------------------------------------|


                                       PH         
   |----3---|    |----3---|                       
   E    E   E    E   E    E   S   S    Q.         
-------------------------------------------------|
-------15--------L--------L-------L--------------|
--14b------14b------14b------14b----<>14brb------|
-------------------------------------------------|
-------------------------------------------------|
-------------------------------------------------|


                                     PM        
   S   S    S  S  S  S  S  E   S  S  S  Q      
----------------------------------------------|
----------------------------------------------|
--14b-14br-12----14-12-14-12------------------|
--------------14--------------14-12-----------|
------------------------------------12--------|
---------------------------------------15b----|


   |--3--|  |--3--|  |--3--|  |--3--|  |--3--|  |--3--|  |--3--|  3    
   S  S  S  S  S  S  S  S  S  S  S  S  S  S  S  S  S  S  S  S  S  E.   
--------------------------------------------------------12----12-15---|
--------------------------------------12----12-15-12-15----15---------|
--------------------12----12-14-12-14----14---------------------------|
--12----12-14-12-14----14---------------------------------------------|
-----14---------------------------------------------------------------|
----------------------------------------------------------------------|


                         PH                                         
   |---3--|  |---3--|                                               
   S   S  S  S   S  S    E    S  S  H             E     E.   E   S  
---------12-----------------------------------|--------------------|
------12----15p-12----------------------------|--15----15--------x-|
--14b--------------14-<>14b--12----14b--------|--14br--12--------x-|
--------------------------------14------------|-------------14\--x-|
----------------------------------------------|--------------------|
----------------------------------------------|--------------------|


   Q      E   S  H        S     E    Q.         E   E    Q      
--14------------------------|--17b--17b------|-----17b--17b----|
--17b----15--17-17----------|----------------|-----------------|
--------------------------x-|----------------|-----------------|
--------------------------x-|----------------|-----------------|
----------------------------|----------------|-----------------|
----------------------------|----------------|-----------------|


   E    E    E    E      E   Q.         H            Q      E   S  H         S  
--17b--17b--17b--17pbr--15--17------|---L--------|-----------------------------|
------------------------------------|------------|--17b----15--17-17---------L-|
------------------------------------|------------|-----------------------------|
------------------------------------|------------|-----------------------------|
------------------------------------|------------|-----------------------------|
------------------------------------|------------|-----------------------------|


   H            Q     Q        Q      E   S  H         S     H         
------------|--------17----|--17b----15--17-17---------L-|---L--------|
---L--------|--17----19----|--19b----17--19-19---------L-|---L--------|
------------|--------------|-----------------------------|------------|
------------|--------------|-----------------------------|------------|
------------|--------------|-----------------------------|------------|
------------|--------------|-----------------------------|------------|


   Q      E   S  H         S     H            Q     Q     
--15b----14--15-15---------L-|---L--------|--15----17----|
--17b----15--17-17---------L-|---L--------|--17----19----|
-----------------------------|------------|--------------|
-----------------------------|------------|--------------|
-----------------------------|------------|--------------|
-----------------------------|------------|--------------|


   Q      E   S  H         S     H            Q      E   S  H         S  
--17b----15--17-17---------L-|---L--------|--15b----14--15-15---------L-|
--19b----17--19-19---------L-|---L--------|--17b----15--17-17---------L-|
-----------------------------|------------|-----------------------------|
-----------------------------|------------|-----------------------------|
-----------------------------|------------|-----------------------------|
-----------------------------|------------|-----------------------------|


   H            Q     Q        Q      E   S  H         S     H         
---L--------|--15----17----|--17b----15--17-17---------L-|---L--------|
---L--------|--17----19----|--19b----17--19-19---------L-|---L--------|
------------|--------------|-----------------------------|------------|
------------|--------------|-----------------------------|------------|
------------|--------------|-----------------------------|------------|
------------|--------------|-----------------------------|------------|


   Q      E   S  H         S     H            Q     Q     
--15b----14--15-15---------L-|---L--------|--15----17----|
--17b----15--17-17---------L-|---L--------|--17----19----|
-----------------------------|------------|--------------|
-----------------------------|------------|--------------|
-----------------------------|------------|--------------|
-----------------------------|------------|--------------|


   Q      E   S  H         S     H            Q      E   S  H         S  
--17b----15--17-17---------L-|---L--------|--15b----14--15-15---------L-|
--19b----17--19-19---------L-|---L--------|--17b----15--17-17---------L-|
-----------------------------|------------|-----------------------------|
-----------------------------|------------|-----------------------------|
-----------------------------|------------|-----------------------------|
-----------------------------|------------|-----------------------------|


   H            Q     Q        Q      E   S  H         S     H         
---L--------|--15----17----|--17b----15--17-17---------L-|---L--------|
---L--------|--17----19----|--19b----17--19-19---------L-|---L--------|
------------|--------------|-----------------------------|------------|
------------|--------------|-----------------------------|------------|
------------|--------------|-----------------------------|------------|
------------|--------------|-----------------------------|------------|


   Q      E   S  H         S     H          
--15b----14--15-15---------L-|---L--------||
--17b----15--17-17---------L-|---L--------||
-----------------------------|------------||
-----------------------------|------------||
-----------------------------|------------||
-----------------------------|------------||




Duration Legend
---------------
W - whole
H - half
Q - quarter
E - 8th
S - 16th
T - 32nd
X - 64th
. - note dotted
|-n-|  - n-tuplets


Tablature Legend
----------------
L - tied note
x - dead note
g - grace note
(n) - ghost note
> - accentuded note
NH - natural harmonic
AH - artificial harmonic
TH - tapped harmonic
SH - semi harmonic
PH - pitch harmonic
h - hammer on
p - pull off
b - bend
br - bendRelease
pb - preBend
pbr - preBendRelease
brb - bendReleaseBend
\n/ - tremolo bar dip
\n - tremolo bar dive
-/n - tremolo bar Release up
/n\ - tremolo bar inverted dip
/n - tremolo bar return
-\n - tremolo bar Release down
S - shift slide
s - legato slide
/ -  slide into from below or out of upwards
\ -  slide into from above or out of downwards
~ - vibrato
W - wide vibrato
tr - trill
TP - tremolo picking
T - tapping
S - slap
P - pop
< - fade in
^ - brush up
v - brush down

Добавлено: 01.07.2012
Вам также может быть интересно:
Другие материалы по этой песне:

Страница создана 26.04.2012
http://primanota.ru/frehleys-comet/into-the-night-chords.htm
Привет, Гость.
Предлагаем пройти революционный курс по гитаре.
Подарок от PrimaNota.Ru, забирай!