PrimaNota.ru - самый крупный в мире бесплатный архив песенных текстов, аккордов, табулатур и нот


Freezepop - Less Talk More Rokk - текст песни, таба, видео

Регистрация Запомнить меня
Войти через:  Facebook Google Twitter Vk Yandex Mail.ru

Freezepop - Less Talk More Rokk - текст песни, таба, видео

Печатать
Просмотров: 123
Авторы: Jussi Gamache, Kasson Crooker

-----------------------------------------------------------------------------------------
Less Talk More Rock (Izzy Sparks Remix) – Freezepop
-----------------------------------------------------------------------------------------
Tabbed By: Henry Taylor

Tuning: Drop “D”
There are 2 guitars in this song, both in drop D

And here is a blank tab staff thing that u can use for your own tabs:

e|---------------------------------------------------------------|
B|---------------------------------------------------------------|
G|---------------------------------------------------------------|
D|---------------------------------------------------------------|
A|---------------------------------------------------------------|
E|---------------------------------------------------------------|
Your welcome!

This Tab is pretty cool and I couldn't find a tab for it so I decided to tab it myself! Enjoy!

Key:
12b(15) bend to
12b(15)r12 bent to then release
12pb(15)12 pre-bent and then released
* Palm mute
/slide down to
\slide up to
~ Vibrato
h Hammer on
p Pull off
= sustain that note
<> Pinch Harmonic
bn – Blue note
x – Mute note

Intro (Alternate picking):
e|----------------------------------------------------|
B|----------------------------------------------------|
G|---------------------5~~~-------------------7h8p7~--|
D|-----------3-4-5-0==---------------3-4-5-0==--------| x4
A|-3-5-3--------------------3-5-3---------------------|
D|-------0==-----------------------0==----------------|
     Guitar 2 comes sliding in from “0”
 And plays along
Bridge 1:						     |----|
e|-----------------------------------------------------------------------------------|
B|-----------------------------------------------------------------------------------|
G|-7==-------7==------7-7--------7==-------7==------7-7-------7==------7==-----------|
D|-7==-6/-3--7==-6==--7-7--6/-3--7==-6/-3--7==-6==--7-7-6/-3--7==6/-3--7==--6/-3-----|
A|-5==-6/-3--5==-6==--5-5--6/-3--5==-6/-3--5==-6==--5-5-6/-3--5==6/-3--5==--6/-3-----|
D|-----6/-3------6==-------6/-3------6/-3------6==------6/-3-----6/-3-------6/-3-----|

e|----------------------------------------------------------------------------------|
B|----------------------------------------------------------------------------------|
G|-7==------7-7-------7==-------7==-------7==------7-7-------7==-------7==----------|
D|-7==-6==--7-7-6/-3--7==-6/-3--7==-6/-3--7==-6==--7-7-6/-3--7==-6/-3--7==-6/-3-----|
A|-5==-6==--5-5-6/-3--5==-6/-3--5==-6/-3--5==-6==--5-5-6/-3--5==-6/-3--5==-6/-3-----|
D|-----6==------6/-3------6/-3------6/-3------6==------6/-3------6/-3------6/-3-----|

e|---------------------------------|
B|---------------------------------|
G|-7==-------7-7-------8=====------|
D|-7==-6/-3--7-7-6/-3--8=====------|
A|-5==-6/-3--5-5-6/-3--6=====------|
D|-----6/-3------6/-3--------------|



Chorus
e|-----------------------------------------------------------------------------|
B|-----------------------------------------------------------------------------|
G|-7-7-7-7====-3-3-3-3====-5-5-5-5====-------5==-6==-7-7-7-7====-3-3-3-3====---|
D|-7-7-7-7====-3-3-3-3====-5-5-5-5====-5-5-5-5==-6==-7-7-7-7====-3-3-3-3====---|
A|-5-5-5-5====-1-1-1-1====-3-3-3-3====-5-5-5-3==-4==-5-5-5-5====-1-1-1-1====---|
D|-------------------------------------5-5-5-----------------------------------|

e|---------------------------|
B|---------------------------|
G|--------------5-5-5-6-6-6--|
D|-3-3-3-3====--5-5-5-6-6-6--|
A|-3-3-3-3====--3-3-3-4-4-4--|
D|-3-3-3-3====---------------|

A portion of the bridge (again):
e|---------------------------------------------------------------------|
B|---------------------------------------------------------------------|
G|-7==-------7==------7-7--------7==-------7==-------7==------7-7------|
D|-7==-6/-3--7==-6==--7-7--6/-3--7==-6/-3--7==-6/-3--7==-6==--7-7-6/-3-|
A|-5==-6/-3--5==-6==--5-5--6/-3--5==-6/-3--5==-6/-3--5==-6==--5-5-6/-3-|
D|-----6/-3------6==-------6/-3------6/-3------6/-3------6==------6/-3-|
									|--|
 Whammy Bar Dive
Bridge 2: 		  Slide out to “0”
 Guitar 2			 |---|
e|-----------------------------------|
B|--13-----14-----15=========---////-|
G|-b15(17)b16(18)b17(19)=====r17////-|
D|-----------------------------------|
A|-----------------------------------|
D|-----------------------------------|

Bridge 3:
This part isn't correct timing wise, just listen to the song and you will figure it out
 | Guitar 1
e|-------------------------------------------------------------------------|-|
B|-------------------------------------------------------------------------|-|
G|-7-8-9-10--7-8-9-10--7-8-9-10--7-8-9-10--7-8-9-10--7-8-9-10--7-8-9-10===-|-|
D|-7-8-9-10--7-8-9-10--7-8-9-10--7-8-9-10--7-8-9-10--7-8-9-10--7-8-9-10===-|-|
A|-5-6-7-8---5-6-7-8---5-6-7-8---5-6-7-8---5-6-7-8---5-6-7-8---5-6-7-8====-|-|
D|-------------------------------------------------------------------------|-|
 | Guitar 2									| |
e|-------------------------------------------------------------------------|---|
B|---------------------------------7br7brp5-----7br7brp5-------------------|---|
G|-------------------------------------------------------------------------|---|
D|------------------------------------------5///---------5///--------------|---|
A|-------------------------------------------------------------------------|---|
D|-------------------------------------------------------------------------|---|
                    |----------------------------------------------------------|
					         |
				  I'm not to sure about this part

This is the last part to the bridge:
e|---------------------------------------------------------------|
B|---------------------------------------------------------------|
G|-7-8-9-10-8~~~-------------------------------------------------|
D|-7-8-9-10-8~~~-------------------------------------------------|
A|-5-6-7-8--6~~~-------------------------------------------------|
D|---------------------------------------------------------------|
 |
 | Guitar 2
e|---------------------------------------------------------------|
B|-----------11--------------------------------------------------|
G|-----------13b15====r13----------------------------------------|
D|---------------------------------------------------------------|
A|---------------------------------------------------------------|
D|---------------------------------------------------------------|
                       |-|
		   Whammy Dive

Chorus x2
e|-----------------------------------------------------------------------------|
B|-----------------------------------------------------------------------------|
G|-7-7-7-7====-3-3-3-3====-5-5-5-5====-------5==-6==-7-7-7-7====-3-3-3-3====---|
D|-7-7-7-7====-3-3-3-3====-5-5-5-5====-5-5-5-5==-6==-7-7-7-7====-3-3-3-3====---|
A|-5-5-5-5====-1-1-1-1====-3-3-3-3====-5-5-5-3==-4==-5-5-5-5====-1-1-1-1====---|
D|-------------------------------------5-5-5-----------------------------------|


e|--------------------------------------|
B|--------------------------------------|
G|--------------5-5-5-6-6-6-------------|
D|-3-3-3-3====--5-5-5-6-6-6-------------|
A|-3-3-3-3====--3-3-3-4-4-4-------------|
D|-3-3-3-3====--------------------------|

Synth beat kicks in: (for this you hear a slight scratching on the guitar, all you 
have to do is pick slide very very very slowly on the D string) and then a chord kicks in
e|---------------------------------------------------------------|
B|---------------------------------------------------------------|
G|------------------------------------------7===================-|
D|------------------------------------------7===================-|
A|------------------------------------------5===================-|
D|----xxxxxxxxxxxxxxxxxxxxxxxxxxxxxxxx------0===================-|

Guitar 1: (played very slowly) done with alternate picking
e|--------------------------------------------|
B|---------------------------------1--3===----|
G|----------------------0--2--0--2------------|
D|----------2--4--2--4------------------------|
A|-5--3--5------------------------------------|
D|--------------------------------------------|

Guitar 1: done with alternate picking
e|-------------------------------------------|
B|---------------------------------1--3/5\3--|
G|----------------------0--2--0--2-----------|
D|----------2--4--2--4-----------------------|
A|-5--3--5-----------------------------------|
D|-------------------------------------------|

And then on to this different part: G1
e|-----------------------------------------------|
B|-----------------------------------------------|
G|--5--3--5--3----------3----------3--5====------|
D|-------------5--3--5-----2--3--5---------------|
A|-----------------------------------------------|
D|-----------------------------------------------|

And the next different part: G1 or 2(not to sure about this part)
e|--------------------------------------------------|
B|--------------------------------------------------|
G|--------------------------------------------------|
D|----------2-----3-----4bn---5-----2--5--7--5===---|
A|-3--1--3-----3-----3-----3-----3------------------|
D|--------------------------------------------------|

Ok, there are 2 different ways to do this part, you can do it starting at 5
Guitar 1: very fast (alt picking)
e|---------------------------------|
B|-----------------------1-3===----|
G|---------------0-2-0-2-----------|
D|-------2-4-2-4-------------------| x2
A|-5-3-5---------------------------|
D|---------------------------------|

********OR you can do it starting at 12***********
e|------------------------------8-10===---|
B|--------------------8-10-8-10-----------|
G|----------9-11-9-11---------------------|
D|-12-10-12-------------------------------|
A|----------------------------------------|
D|----------------------------------------|


Chorus x2:
e|-----------------------------------------------------------------------------|
B|-----------------------------------------------------------------------------|
G|-7-7-7-7====-3-3-3-3====-5-5-5-5====-------5==-6==-7-7-7-7====-3-3-3-3====---|
D|-7-7-7-7====-3-3-3-3====-5-5-5-5====-5-5-5-5==-6==-7-7-7-7====-3-3-3-3====---|
A|-5-5-5-5====-1-1-1-1====-3-3-3-3====-5-5-5-3==-4==-5-5-5-5====-1-1-1-1====---|
D|-------------------------------------5-5-5-----------------------------------|


e|--------------------------------------|
B|--------------------------------------|
G|--------------5-5-5-6-6-6-------------|
D|-3-3-3-3====--5-5-5-6-6-6-------------|
A|-3-3-3-3====--3-3-3-4-4-4-------------|
D|-3-3-3-3====--------------------------|


Then the intro again:
e|-----------------------------------------------------|
B|-----------------------------------------------------|
G|---------------------5~~~--------------------7h8p7~--|
D|-----------3-4-5-0==----------------3-4-5-0==--------| x8
A|-3-5-3---------------------3-5-3---------------------|
D|-------0==-----------------------0==-----------------|

And then the outro w/ delay:
e|-------------------------|
B|-------------------------|
G|-5-5-5-6-6-6-7======/----|
D|-5-5-5-6-6-6-7======/----|
A|-3-3-3-4-4-4-5======/----|
D|-------------0======x----|

End – Enjoy! Sorry if there are mistakes, its only my second tab, my first was Kill You 
Dethklok which is on the UG site right now and should be around 99% correct. Have fun!
Добавлено: 03.08.2013
Другие материалы по этой песне:
  • Аккорды и текст

Страница создана 17.05.2012
http://primanota.ru/freezepop/less-talk-more-rokk-chords.htm
Привет, Гость.
Предлагаем пройти революционный курс по гитаре.
Подарок от PrimaNota.Ru, забирай!