PrimaNota.ru - самый крупный в мире бесплатный архив песенных текстов, аккордов, табулатур и нот


Freezepop - Less talk more rock - таба, видео

Регистрация Запомнить меня
Войти через:  Facebook Google Twitter Vk Yandex Mail.ru

Freezepop - Less talk more rock - таба, видео

Печатать
Просмотров: 127


Hey Again this is Me Icy Cube this is my second tab being posted (my first being Shotgun, by:
The Outline).

I Saw a quite alot of people wanted to learn how to play Less talk more rock from Gh2 (Guitar Hero 2) So here it is 

Ur gonna need a Special Effects Pedal for this song, it should be able to do a pitch shift.

So first you have to start off with the pitch being pulled -2 otcaves, the first chord is

e|--------------------
B|--------------------
G|--------------------
D|--------------------
A|-------5~~~~~~~-----
E|-------5~~~~~~~-----

e|-------------------------------------/--------/
B|-------------------------------1--3-/(5)--(3)/
G|--------------------0--2--0--2-----/--------/
D|--0---0--2--4--2--4---------------/--------/
A|----3----------------------------/--------/
E|--------------------------------/--------/

After playing it 4x you play it 4x -1 Octave, then normally, then like this,
then an Octave higher.

( Left hand Fingering, I Index, M Middle, R Ring, P Pinky)
                                  --I---R---P--R-
e|---------------------I--R---I--R--8--10--12-10-
B|-I---I--M--P---M--P--8--10--8--10-------------
G|-7-R-7--9--11--9--11--------------------------
D|--10------------------------------------------
A|-----------------------------------------------
E|-----------------------------------------------

The Chorus is quite simple and straight forward

e|------------------------/------/---------------
B|-----------------------/8-----/--------------
G|---7--7--5---7---5h7--/---7--/------------
D|---------------------/------/------------
A|--------------------/------/-----------
E|-------------------/------/----------


e|------------------------/------/---------------
B|-----------------------/6-----/--------------
G|---5--5--3---5---3h5--/---5--/------------
D|---------------------/------/------------
A|--------------------/------/-----------
E|-------------------/------/----------

As for the rest your gonna have to firgure it yourself Soz XD


Добавлено: 12.09.2013
Другие материалы по этой песне:
  • Аккорды и текст

Страница создана 12.09.2013
http://primanota.ru/freezepop/less-talk-more-rock-chords.htm
Привет, Гость.
Предлагаем пройти революционный курс по гитаре.
Подарок от PrimaNota.Ru, забирай!