PrimaNota.ru - самый крупный в мире бесплатный архив песенных текстов, аккордов, табулатур и нот


Freedom Worship - This I Know - таба, видео

Регистрация Запомнить меня
Войти через:  Facebook Google Twitter Vk Yandex Mail.ru

Freedom Worship - This I Know - таба, видео

Печатать
Просмотров: 75
    Freedom Worship - This I Know

140bpm (Quarter Note Delay)

Intro (0:05), (1:51)

e |--4-2-0-------4-2-4-0--------4-4-4-4-2-2-2-2h4p2-0-0-0-0-0-0-0-0------------|
B |--------0-----------0--------0-0-0-0-0-0-0-0-0-0-0-0-0-0-0-0-0-0------------|
G |----------------------------------------------------------------------------| x2
D |----------------------------------------------------------------------------|
A |----------------------------------------------------------------------------|
E |----------------------------------------------------------------------------|

Verse (0:31), (0:59), (2:04)                                  (1:19), (2:25)

e |--0--------------4-4-4-4-2-2-2-2h4p2-0--------------|    |------0----------------|
B |--0--(LET RING)--0-0-0-0-0-0-0-0-0-0-0--(LET RING)--|    |------0--(x8)----------|
G |----------------------------------------------------| x2 |-----------------------|
D |----------------------------------------------------|    |-----------------------|
A |----------------------------------------------------|    |-----------------------|
E |----------------------------------------------------|    |-----------------------|

Interlude (0:52), 

e |--0-----------------|
B |--0--(x16)----------|
G |--------------------|
D |--------------------|
A |--------------------|
E |--------------------|

Chorus (1:23), (2:29)

e |--0---------2---------0-2-4---------2-4-5--------/--5-4-2-4----|--5s13-13-13--|
B |--0--(x8)---0--(x6)---0-0-0--(x6)---0-0-0--(x4)--/--0-0-0-0----|--------------|
G |-------------------------------------------------/-------------|--------------|
D |-------------------------------------------------/-------------|--------------|
A |-------------------------------------------------/--1ST TIME---|---2ND TIME---|
E |-------------------------------------------------/-------------|--------------|

INTERLUDE 2, SAME AS CHORUS (2:55)

Bridge Solo (3:37)

e |--12p11---------------------------------------------|
B |--------14-12-12-12-12-12-12-12-12-12-12-12-12------|
G |----------------------------------------------------|
D |----------------REPEAT UNTIL END OF BRIDGE----------|
A |----------------------------------------------------|
E |----------------------------------------------------|

Stripped Back Chorus (4:45)         (4:59)

e |--0-----2-----4-----5-----|    |--0--------2--------4--------5--------|
B |--0-----0-----0-----0-----|    |--0--(x8)--0--(x8)--0--(x8)--0--(x8)--|
G |--------------------------|    |--------------------------------------|
D |--------------------------|    |--------------------------------------|
A |--------------------------|    |--------------------------------------|
E |---------LET RING---------|    |--------------------------------------|

PLAY INTERLUDE 2 AGAIN (5:13)

Outro (5:40)

e |-----0-----|
B |-----0-----|
G |-----------|    <<< GO CRAZY
D |-----------|
A |-----------|
E |-----------|
Добавлено: 04.09.2013
Другие материалы по этой песне:
  • Аккорды и текст

Страница создана 04.09.2013
http://primanota.ru/freedom-worship/this-i-know-chords.htm
Привет, Гость.
Предлагаем пройти революционный курс по гитаре.
Подарок от PrimaNota.Ru, забирай!