PrimaNota.ru - самый крупный в мире бесплатный архив песенных текстов, аккордов, табулатур и нот


Freedom Worship - Shoulders Of Promise - таба, видео

Регистрация Запомнить меня
Войти через:  Facebook Google Twitter Vk Yandex Mail.ru

Freedom Worship - Shoulders Of Promise - таба, видео

Печатать
Просмотров: 65
     Freedom Worship - Shoulders of Promise

140bpm

- Intro x4 (Dotted 8th Delay)

e |---------------------------------------------12---------12-----10-----|
B |---10--10--10--10--13--12--10--10-----10--10-----10--10-----10--------|
G |----------------------------------------------------------------------|
D |----------------------------------------------------------------------|
A |----------(Palm Muted for first 2 times, open up for second 2)--------|
E |----------------------------------------------------------------------|

- Verse (Dotted 8th Delay)

e |-----------------------------------------------------------------------|
B |---------------(Palm Muted throughout)---------------------------------|
G |-----------------------------------------------------------------------|
D |-----------7------7------x2-------------5--------5---------------------|
A |---7--7--7---7--7---7----------5--5--5-----5--5----5-------------------|
E |-----------------------------------------------------------------------|

e |---------------------------------/-------------------------------------|
B |------1st Time------------------/-----2nd Time-------------------------|
G |-------------------------------/---------------------------------------|
D |-------------2-------2--------/--2-------------------------------------|
A |---2--2--2----2--2---2-------/---2---LET RING--------------------------|
E |----------------------------/----0-------------------------------------|

- Pre-Chorus

e |--------(SWELLED NOTES)------------------------------------------------|
B |----13--15--17--15-------13--(x12)--12--(x2)--13--(x2)--15--(x12)------|
G |-----------------------------------------------------------------------|
D |-----------------------------------------------------------------------|
A |-----------------------------------------------------------------------|
E |-----------------------------------------------------------------------|

e |------------------------------------------------------------------------|
B |---18--(x2)--17--(x2)--13--(x12)--12--(x4)--13--(x8)--8--(x5)-----////--|
G |------------------------------------------------------------------^-----|
D |------------------------------------------------------------SLIDE DOWN--|
A |------------------------------------------------------------------------|
E |------------------------------------------------------------------------|

- Chorus

e |---12-----------13-----------12---------/-----15---------/--------------|
B |---13--x4-------13--x4-------13--x4----/------13--x4----/-------15--x3--|
G |---12-----------12-----------12-------/-------12-------/--------12------|
D |-------------------------------------/----------------/-----------------|
A |------------------------------------/--1st/3rd Time--/-----2nd Time-----|
E |-----------------------------------/----------------/-------------------|

- Repeat Intro x4 (Open Picking)

- Repeat Verse

- Repeat Pre-Chorus

- Repeat Chorus

- Bridge

e |-----------12-------12------13----13--12----------------------------------|
B |--------------13-------13------12--------13---------15----------15--------|
G |--12--12---------12-------12-----------------12--12-----12--12------------|
D |--------------------------------------------------------------------------|
A |--------------------------------------------------------------------------|
E |--------------------------------------------------------------------------|

e |---------------------------------------------------------------------------|
B |---------15-----13-----12h13--13--13------------13----13-----15------------|
G |--12--12-----12-----12----------------12h14--14----14----14-----14---------|
D |---------------------------------------------------------------------------|
A |---------------------------------------------------------------------------|
E |---------------------------------------------------------------------------|

e |----------------------------------------------------------------------------|
B |--15p13---------------13---13---15----15p13---------------------------------|
G |--------14--12h14--14----14---14---14-------14------------------------------|
D |-------------------------------------------------------(REPEAT)-------------|
A |----------------------------------------------------------------------------|
E |----------------------------------------------------------------------------|

- Outro x2

e |--20--x16---19--x6-------------20--x5----19---------------------|
B |---------------------20--x10-------------------20--x8-----------|
G |----------------------------------------------------------------|
D |----------------------------------------------------------------|
A |----------------------------------------------------------------|
E |----------------------------------------------------------------|
Добавлено: 10.08.2013
Другие материалы по этой песне:
  • Аккорды и текст

Страница создана 10.08.2013
http://primanota.ru/freedom-worship/shoulders-of-promise-chords.htm
Привет, Гость.
Предлагаем пройти революционный курс по гитаре.
Подарок от PrimaNota.Ru, забирай!