PrimaNota.ru - самый крупный в мире бесплатный архив песенных текстов, аккордов, табулатур и нот


Freedom Worship - Find You - таба, видео

Регистрация Запомнить меня
Войти через:  Facebook Google Twitter Vk Yandex Mail.ru

Freedom Worship - Find You - таба, видео

Печатать
Просмотров: 83
    Freedom Worship - Find You

120bpm

Intro/Verse (0:22), (1:58)

e |-----------------------|
B |--17-----15-----13-----|
G |--16-----14-----12-----| 
D |--14-----12-----10-----|
A |-----------------------|
E |------SWELLS-----------|

Pre-Chorus (1:42), (2:46)
E |------------------|
B |--15-------13-----|
G |--14-------12-----|
D |--12-------10-----|
A |------------------|
E |------SWELLS------|

Build/Chorus (3:02)

e |-----------------------|-END ON---------------|
B |--20-----19-----17-----|----------20----------|
G |--x-----x------x-------|----------x-----------|
D |--17-----17-----17-----|----------17----------|
A |-----------------------|----------------------|
E |-----------------------|----------------------|

Bridge (4:38)

e |--------------3-----3-----3------|
B |--1-----3-----3-----3---------3--|
G |--0-----2-----0-----0------------| x6
D |--2-----0-----0-----0------------|
A |--3-----0-----2-----2------------|
E |--------------3-----3------------|

Bridge 2 (6:14)

e |--3----------2----------3--------------|
B |--3--(x12)---3--(x12)---3--(x24)-------|
G |---------------------------------------| Triplet Feel
D |---------------------------------------|
A |---------------------------------------|
E |---------------------------------------|

Solo (6:30)

e |--3-2---2-----3-3-3-5-5-5-5-5-5-5-5-5-3-3-2-2---3-2---2------3--(x8)---|
B |------3---------------------------------------------3--------3---------|
G |----------(x4)------------------------------------------(x4)-----------|
D |-----------------------------------------------------------------------|
A |-----------------------------------------------------------------------|
E |-----------------------------------------------------------------------|

e |--2--(x4)---3--(x4)---3-2---2------3-3-3-3-3-3-3-3-3-3-3-3-2-2-2-2-3-3-3-3-3-3-3-3-|
B |--3---------3-------------3--------------------------------------------------------|
G |------------------------------(x8)-------------------------------------------------|
D |-----------------------------------------------------------------------------------|
A |-----------------------------------------------------------------------------------|
E |-----------------------------------------------------------------------------------|

e |--3-2---2-3-2-----3-2---2------3---------2--------3---------5--------3--------------|
B |------3-------3-------3--------3--(x12)--3--(x4)--3--(x12)--3--(x4)--3--(LET RING)--|
G |--------------------------(x8)------------------------------------------------------|
D |------------------------------------------------------------------------------------|
A |------------------------------------------------------------------------------------|
E |------------------------------------------------------------------------------------|
Добавлено: 23.06.2013
Другие материалы по этой песне:
  • Аккорды и текст

Страница создана 23.06.2013
http://primanota.ru/freedom-worship/find-you-chords.htm
Привет, Гость.
Предлагаем пройти революционный курс по гитаре.
Подарок от PrimaNota.Ru, забирай!