PrimaNota.ru - самый крупный в мире бесплатный архив песенных текстов, аккордов, табулатур и нот


Freedom Worship - Breakout - таба, видео

Регистрация Запомнить меня
Войти через:  Facebook Google Twitter Vk Yandex Mail.ru

Freedom Worship - Breakout - таба, видео

Печатать
Просмотров: 67
    Freedom Worship - Breakout

150bpm (Dotted Eighth Delay)

Intro Riff (0:00), (0:50), (2:20), (3:24)

e |------------------------------------|
B |------5-------5-------5---7---7-5---|
G |--6-6---6-6-6---6-6-6---6---6-------| REPEAT
D |------------------------------------|
A |------------------------------------|
E |------------------------------------|

Intro Riff 2 (0:25), (1:16), (2:07), (3:13), (3:50), (4:28)

e |--------------------------------------|
B |------5-----5---5-----5---7---7p5-----|
G |--6-6---6-6---6---6-6---6---6-----6---|
D |--------------------------------------|
A |--------------------------------------|
E |--------------------------------------|

Pre-Chorus (1:41), (2:45)

e |--------------------------------|
B |--------------------------------|
G |--6------9-------14---13--------| LISTEN TO SONG FOR OCTAVE CHANGES
D |--x------x-------x----x---------|   AND FOLLOW KICK DRUM PATTERN
A |--4------7-------12---11--------|
E |--------------------------------|

During Drum Solo (4:15)

e |---------------------------|
B |---------------------------|
G |-----4---------------------|
D |-----x----LET RING---------|
A |-----6---------------------|
E |---------------------------|

Ending (4:54)

e |----------------------------|
B |-----5----------------------|
G |-----6----------------------|
D |-----6----GO NUTS-----------|
A |-----4----------------------|
E |----------------------------|

Song Order:

Ok, so the structure of this song is crazy so here's the order...

Intro 1
Intro 2
Intro 1
Intro 2
Pre-Chorus
Intro 2
Intro 1
Pre-Chorus
Intro 2
Intro 1
Intro 2
Drum Solo Part
Intro 2
Ending
Добавлено: 30.08.2013
Другие материалы по этой песне:
  • Аккорды и текст

Страница создана 30.08.2013
http://primanota.ru/freedom-worship/breakout-chords.htm
Привет, Гость.
Предлагаем пройти революционный курс по гитаре.
Подарок от PrimaNota.Ru, забирай!