PrimaNota.ru - самый крупный в мире бесплатный архив песенных текстов, аккордов, табулатур и нот


Freedom Call - Warriors - текст песни, таба, бас-таба, видео

Регистрация Запомнить меня
Войти через:  Facebook Google Twitter Vk Yandex Mail.ru

Freedom Call - Warriors - текст песни, таба, бас-таба, видео

Печатать
Просмотров: 233
-------------------------------------------------------------------------------

                             Warriors - Freedom Call

-------------------------------------------------------------------------------



Tabbed by: BarretXIII



Email: jr.daboss@gmail.com



Tuning: 1/2 step down



  Intro



e|--7-0-0-5-0-0-3-0-0-5-0-0-3-0-0-2-0-3-0-0-2-0-0-3--0-0-0-2-0-0-3--|
B|o-----------------------------------------------------------------|
G|------------------------------------------------------------------|
D|------------------------------------------------------------------|
A|o-----------------------------------------------------------------|
E|------------------------------------------------------------------|



e|--7-0-0-5-0-0-7-0-8-0-0-7-0-0-5-0-3-0-0-2-0-0-3--0-0-0-2-0-0-3--|
B|---------------------------------------------------------------o|
G|----------------------------------------------------------------|
D|----------------------------------------------------------------|
A|---------------------------------------------------------------o|
E|----------------------------------------------------------------|



   Fill 1


e|----14-15-14-17-15-14----15-14-------15-14-------|
B|-17-------------------17-------17-16-------17-15-|
G|-------------------------------------------------|
D|-------------------------------------------------|
A|-------------------------------------------------|
E|-------------------------------------------------|



  Verse


e|--0-0-7-0-0-5-0-0-4-0-0-0-2p0-----7-0-0-7-0-0-9-0-7-0-0-0-2h4p2-0--|
B|o-----------------------------4p0----------------------------------|
G|-------------------------------------------------------------------|
D|-------------------------------------------------------------------|
A|o------------------------------------------------------------------|
E|-------------------------------------------------------------------|


e|--0-0-7-0-0-5-0-0-4-0-0-0-2p0-----8-0-0-10-0-0-8-0-7-0-0-0-7p5p4-0--|
B|------------------------------4p0----------------------------------o|
G|--------------------------------------------------------------------|
D|--------------------------------------------------------------------|
A|-------------------------------------------------------------------o|
E|--------------------------------------------------------------------|



  Pre-Chorus



    T             T             T        T             T             T

e|-12-7p5p4h5h7--12-7p5p4h5h7--12-7p5p4--------------------------------------|
B|o-------------------------------------12-7p5p4h5h7--12-7p5p4h5h7--12-7p5p4o|
G|---------------------------------------------------------------------------|
D|---------------------------------------------------------------------------|
A|o-------------------------------------------------------------------------o|
E|---------------------------------------------------------------------------|





  Chorus


e|--7-0-0-5-0-0-4-0-0-5-0-0-0-2h4p2p0-7-0-0-7-0-0-9-0-7-0-0-0-2h4p2p0--|
B|o--------------------------------------------------------------------|
G|---------------------------------------------------------------------|
D|---------------------------------------------------------------------|
A|o--------------------------------------------------------------------|
E|---------------------------------------------------------------------|


e|--7-0-0-5-0-0-4-0-5-0-0-4-0-0-2-0-4-0-0-5-0-0-4-0-2-0-0-0-2h4p2p0--|
B|------------------------------------------------------------------o|
G|-------------------------------------------------------------------|
D|-------------------------------------------------------------------|
A|------------------------------------------------------------------o|
E|-------------------------------------------------------------------|



  Interlude


e|--0-0-7-0-0-5-0-0-4-0-0-0-2p0-----0-0-7-0-0-9-0-0-7-2h4p2-0--|
B|------------------------------4p0----------------------------|
G|-------------------------------------------------------------|
D|-------------------------------------------------------------|
A|-------------------------------------------------------------|
E|-------------------------------------------------------------|



e|--0-0-2-0-0-3-0-0-7-0-0-3-0-0-2p0-----------4-5-7-5-4------------------|
B|----------------------------------4p0-4-5-7-----------7-5-4------------|
G|------------------------------------------------------------6-4-2------|
D|------------------------------------------------------------------6-4--|
A|-----------------------------------------------------------------------|
E|-----------------------------------------------------------------------|



  Solo

                           full

e|--14~--------14-16-(14)-16^~----16~----18--19--21-21--19--18--(19p)18--16--14--16--|
B|-----------------------------------------------------------------------------------|
G|-----------------------------------------------------------------------------------|
D|-----------------------------------------------------------------------------------|
A|-----------------------------------------------------------------------------------|
E|-----------------------------------------------------------------------------------|

                                       full

e|--14-16-18-19-21----------14-16--14-16^(16)-16~----18--19--21-21--19--18--(19p)18--16----------|
B|------------------19-------------------------------------------------------------------19--21--|
G|-----------------------------------------------------------------------------------------------|
D|-----------------------------------------------------------------------------------------------|
A|-----------------------------------------------------------------------------------------------|
E|-----------------------------------------------------------------------------------------------|



  Post-Solo - 

    Key Change - I'm not sure whether to play the 4th fret on the e-string 
                 or 9th on the B.
                           You can try either one to find your preference.

              

e|-11-4-4-9-4-4-8-4-9-4-4-4-6h8p6-4-11-4-4-11-4-4-13-4-11-4-4-4-6h8p6-4--|
B|o---9-9---9-9---9---9-9-9-------9----9-9----9-9----9----9-9-9-------9--|
G|-----------------------------------------------------------------------|
D|-----------------------------------------------------------------------|
A|o----------------------------------------------------------------------|
E|-----------------------------------------------------------------------|



e|--8-4-4-6-4-4-8-4-6-4-4-4-6h8p6-4-13-4-4-11-4-4-9-4-11-4-4-4-6h8p6-4--|
B|----9-9---9-9---9---9-9-9-------9----9-9----9-9---9----9-9-9-------9-o|
G|----------------------------------------------------------------------|
D|----------------------------------------------------------------------|
A|---------------------------------------------------------------------o|
E|----------------------------------------------------------------------|



  Ending



e|-11-4-4-9-4-4-7-4-9-4-4-7-4-4-6-4-7-4-4-6-4-4-6~--7~-|
B|----9-9---9-9---9---9-9---9-9---9---9-9---9-9--------|
G|-----------------------------------------------------|
D|-----------------------------------------------------|
A|-----------------------------------------------------|
E|-----------------------------------------------------|



e|-11-4-4-9-4-4-7-4-12-4-4-11-4-4-9-4-7-4-4-6-4-4-4-4-7-7-7-7~-|
B|----9-9---9-9---9----9-9----9-9---9---9-9---9-9-9-9----------|
G|-------------------------------------------------------------|
D|-------------------------------------------------------------|
A|-------------------------------------------------------------|
E|-------------------------------------------------------------|



   Order: Intro x2
          Fill 1 x1
          Pre-Verse (not written. it is the p.m. power chords before the verse)
          Verse x2
          Pre-Chorus x2
          Chorus x2
          Pre-Verse 
          Verse x2
          Pre-Chorus x2
          Chorus x2
          Interlude x1
          Pre-Solo (not written as well. But more p.m. power chords)
          Solo x1
          Post-Solo x4
          Ending x1
     
| /  slide up
| \  slide down
| h  hammer-on
| p  pull-off
| ~  vibrato
| +  harmonic
| x  Mute note
===============================================================================
Добавлено: 21.03.2012
Другие материалы по этой песне:

Страница создана 21.03.2012
http://primanota.ru/freedom-call/warriors-chords.htm
Привет, Гость.
Предлагаем пройти революционный курс по гитаре.
Подарок от PrimaNota.Ru, забирай!