PrimaNota.ru - самый крупный в мире бесплатный архив песенных текстов, аккордов, табулатур и нот


Freedom Call - Tears Of Taragon - текст песни, бас-таба, видео

Регистрация Запомнить меня
Войти через:  Facebook Google Twitter Vk Yandex Mail.ru

Freedom Call - Tears Of Taragon - текст песни, бас-таба, видео

Печатать
Просмотров: 142
-------------------------------------------------------------------------------
                             Tears of Taragon - Freedom Call
-------------------------------------------------------------------------------
Tabbed by: zoltan56

credit to songsterr (leland) for sheet music/tabs. 

Intro: no bass for first bit (the triplet carries into the next bar)
F|------|-----|----------------|----------------|----------------|----------------|----------------|
C|------|-----|----------------|----------------|----------------|----------------|----------------|
G|------|-----|----------------|----------------|----------------|----------------|3-333-333-333-33|
D|-0~~~-|-----|0-000-000-000-00|0-000-000-000-00|0-000-000-000-00|0-000-000-000-00|----------------|

F|----------------|----------------|----------------|----------------|-----------------|
C|----------------|----------------|----------------|------000-------|------000--------|
G|0-000-000-000-00|----------------|----------------|----------------|--------------57-|
D|----------------|0-000-000-000-00|0-000-000-000-00|0-000-----000---|0-000-----0000---|

F|----------------|-----------------|----------------|----------|
C|------000-------|------000--------|------000-------|-----000--|
G|----------------|--------------57-|----------------|-777------|
D|0-000-----000---|0-000-----0000---|0-000-----000---|----------|

Verse 1: X2
F|----------------|----------------|----------------|----------------|
C|----------------|----------------|----------------|----------------|
G|----------------|----------------|3-333-333-333-33|0-000-000-000-00|
D|0-000-000-000-00|0-000-000-000-00|----------------|----------------|

Pre-Chorus:
F|----------------|----------------|----------------|----------------|
C|----------------|----------------|----------------|----------------|
G|----------------|2-222-222-222-22|2-222-222-222-22|0-000-000-000-00|
D|0-000-000-000-00|----------------|----------------|----------------|

Chorus:
F|----------------|----------------|----------------|----------------|
C|----------------|----------------|----------------|----------------|
G|7-777-777-777-77|----------------|7-777-777-777-77|----------------|
D|----------------|7-777-777-777-77|----------------|7-777-777-777-77|

F|----------------|----------------|----------------|----------------|
C|----------------|----------------|----------------|----------------|
G|7-777-777-777-77|----------------|----------------|5-555-555-555-55|
D|----------------|7-777-777-777-77|8-888-888-888-88|----------------|

Post-Chorus:
F|----------------|-----------------|
C|------000-------|------000--------|
G|----------------|--------------57-|
D|0-000-----000---|0-000-----0000---|

Verse 2: X2
F|----------------|----------------|----------------|----------------|
C|----------------|----------------|----------------|----------------|
G|----------------|----------------|3-333-333-333-33|0-000-000-000-00|
D|0-000-000-000-00|0-000-000-000-00|----------------|----------------|

Pre-Chorus 2:
F|----------------|----------------|----------------|----------------|
C|----------------|----------------|----------------|----------------|
G|----------------|2-222-222-222-22|2-222-222-222-22|0-000-000-000-00|
D|0-000-000-000-00|----------------|----------------|----------------|

Chorus 2:
F|----------------|----------------|----------------|----------------|
C|----------------|----------------|----------------|----------------|
G|7-777-777-777-77|----------------|7-777-777-777-77|----------------|
D|----------------|7-777-777-777-77|----------------|7-777-777-777-77|

F|----------------|----------------|----------------|----------------|
C|----------------|----------------|----------------|----------------|
G|7-777-777-777-77|----------------|----------------|5-555-555-555-55|
D|----------------|7-777-777-777-77|8-888-888-888-88|----------------|

Post Chorus 2:
F|----------------|----------------|----------------|----------------|
C|----------------|----------------|----------------|----------------|
G|----------------|----------------|----------------|----------------|
D|-0--0-0-0-0-0~--|-0--0-0-0-0-0~--|-0--0-0-0-0-0~--|-0--0-0-0-0-0~--|

Solo:
F|----------------|----------------|----------------|----------------|X2
C|----------------|----------------|----------------|----------------|X2
G|----------------|----------------|3-333-333-333-33|0-000-000-000-00|X2
D|0-000-000-000-00|0-000-000-000-00|----------------|----------------|X2

F|----------------|----------------|X2|-----|
C|----------------|----------------|X2|-----|
G|3-333-333-333-33|0-000-000-000-00|X2|-----|
D|----------------|----------------|X2|-0---|

rest

Solo 2: X10
F|-----------------|
C|--------202------|
G|-------------2-3-|
D|-0-000-----00----|

Pre-Chorus 3:
F|----------------|----------------|----------------|----------------|
C|----------------|----------------|----------------|----------------|
G|----------------|2-222-222-222-22|2-222-222-222-22|0-000-000-000-00|
D|0-000-000-000-00|----------------|----------------|----------------|

Chorus 3: X3
F|----------------|----------------|----------------|----------------|
C|----------------|----------------|----------------|----------------|
G|7-777-777-777-77|----------------|7-777-777-777-77|----------------|
D|----------------|7-777-777-777-77|----------------|7-777-777-777-77|

F|----------------|----------------|----------------|----------------|
C|----------------|----------------|----------------|----------------|
G|7-777-777-777-77|----------------|----------------|5-555-555-555-55|
D|----------------|7-777-777-777-77|8-888-888-888-88|----------------|

Outro:
F|----------------|-----------------|X12|----------------|
C|------000-------|------000--------|X12|------000-------|
G|----------------|--------------57-|X12|----------------|
D|0-000-----000---|0-000-----0000---|X12|0-000-----000---|


thats it, enjoy.


| /  slide up
| \  slide down
| h  hammer-on
| p  pull-off
| ~  vibrato
| +  harmonic
| x  Mute note
===============================================================================
Добавлено: 31.05.2015
Другие материалы по этой песне:

Страница создана 17.05.2012
http://primanota.ru/freedom-call/tears-of-taragon-chords.htm
Привет, Гость.
Предлагаем пройти революционный курс по гитаре.
Подарок от PrimaNota.Ru, забирай!