PrimaNota.ru - самый крупный в мире бесплатный архив песенных текстов, аккордов, табулатур и нот


Freedom Call - Island Of Dreams - текст песни, бас-таба, видео

Регистрация Запомнить меня
Войти через:  Facebook Google Twitter Vk Yandex Mail.ru

Freedom Call - Island Of Dreams - текст песни, бас-таба, видео

Печатать
Просмотров: 134
-------------------------------------------------------------------------------
                             Island of Dreams - Freedom Call
-------------------------------------------------------------------------------
Tabbed by: zoltan56

credit to songsterr (leland) for sheet music/tabs. 

Intro:
F|-------|-------|-------|-------|-------|
C|-------|-------|-------|-------|-------|
G|-0~~~--|-------|-0-----|-------|-------|
D|-------|-1~~~--|-------|-3-----|-1~~~--|

Intro 2: song speeds up. X4
F|---------------------------------|---------------------------------|
C|---------------------------------|---------------------------------|
G|-0-0-0-0-0-0-0-0-----------------|-3-3-3-3-3-3-3-3-----------------|
D|-----------------1-1-1-1-1-1-1-1-|-----------------3-3-3-3-3-3-3-3-|

Verse 1: break for a bit to start. X4
F|---------------------------------|---------------------------------|
C|---------------------------------|---------------------------------|
G|-0-0-0-0-0-0-0-0-----------------|-3-3-3-3-3-3-3-3-----------------|
D|-----------------1-1-1-1-1-1-1-1-|-----------------3-3-3-3-3-3-3-3-|

Verse 1 cont.:
F|---------------------------------|---------------------------------|
C|---------------------------------|---------------------------------|
G|-5-5-5-5-5-5-5-5-5-5-5-5-5-5-5-5-|-0-0-0-0-0-0-0-0-0-0-0-0-0-0-0-0-|
D|---------------------------------|---------------------------------|

F|---------------------------------|---------------------------------|
C|---------------------------------|---------------------------------|
G|---------------------------------|-0-0-0-0-0-0-0-0-0-0-0-0-0-0-0-0-|
D|-3-3-3-3-3-3-3-3-3-3-3-3-3-3-3-3-|---------------------------------|

F|---------------------------------|---------------------------------|
C|---------------------------------|---------------------------------|
G|---------------------------------|-3-3-3-3-3-3-3-3-3-3-3-3-3-3-3-3-|
D|-1-1-1-1-1-1-1-1-1-1-1-1-1-1-1-1-|---------------------------------|

F|---------------------------------|---------------------------------|
C|---------------------------------|---------------------------------|
G|---------------------------------|---------------------------------|
D|-1-1-1-1-1-1-1-1-1-1-1-1-1-1-1-1-|-3-3-3-3-3-3-3-3-3-3-3-3-3-3-3-3-|

Pre-Chorus: song speeds down. X2
F|-----------------|-----------------|-----------------|-----------------|
C|-----------------|-----------------|-----------------|-----------------|
G|-----------------|-3-3-3-3-3-3-3-3-|-0-0-0-0-0-0-0-0-|-----------------|
D|-1-1-1-1-1-1-1-1-|-----------------|-----------------|-3-3-3-3-3-3-3-3-|

Chorus 1:
F|-----------------|-----------------|-----------------|-----------------|
C|-----------------|-----------------|-----------------|-----------------|
G|-3-3-3-3---------|-6-6-6-6---------|-3-3-3-3---------|-6-6-6-6---------|
D|---------4-4-4-4-|---------6-6-6-6-|---------4-4-4-4-|---------6-6-6-6-|

F|-----------------|-----------------|-----------------|-----------------|
C|-----------------|-----------------|-----------------|-----------------|
G|-3-3-3-3---------|-6-6-6-6---------|-3-3-3-3-3-3-3-3-|-1-1-1-1-1-1-1-1-|
D|---------4-4-4-4-|---------6-6-6-6-|-----------------|-----------------|

Verse 2: song speeds up. X2
F|---------------------------------|---------------------------------|
C|---------------------------------|---------------------------------|
G|-0-0-0-0-0-0-0-0-----------------|-3-3-3-3-3-3-3-3-----------------|
D|-----------------1-1-1-1-1-1-1-1-|-----------------3-3-3-3-3-3-3-3-|

Verse 2 cont.:
F|---------------------------------|---------------------------------|
C|---------------------------------|---------------------------------|
G|-5-5-5-5-5-5-5-5-5-5-5-5-5-5-5-5-|-0-0-0-0-0-0-0-0-0-0-0-0-0-0-0-0-|
D|---------------------------------|---------------------------------|

F|---------------------------------|---------------------------------|
C|---------------------------------|---------------------------------|
G|---------------------------------|-0-0-0-0-0-0-0-0-0-0-0-0-0-0-0-0-|
D|-3-3-3-3-3-3-3-3-3-3-3-3-3-3-3-3-|---------------------------------|

F|---------------------------------|---------------------------------|
C|---------------------------------|---------------------------------|
G|---------------------------------|-3-3-3-3-3-3-3-3-3-3-3-3-3-3-3-3-|
D|-1-1-1-1-1-1-1-1-1-1-1-1-1-1-1-1-|---------------------------------|

F|---------------------------------|---------------------------------|
C|---------------------------------|---------------------------------|
G|---------------------------------|---------------------------------|
D|-1-1-1-1-1-1-1-1-1-1-1-1-1-1-1-1-|-3-3-3-3-3-3-3-3-3-3-3-3-3-3-3-3-|

Pre-Chorus 2: song speeds down. X2
F|-----------------|-----------------|-----------------|-----------------|
C|-----------------|-----------------|-----------------|-----------------|
G|-----------------|-3-3-3-3-3-3-3-3-|-0-0-0-0-0-0-0-0-|-----------------|
D|-1-1-1-1-1-1-1-1-|-----------------|-----------------|-3-3-3-3-3-3-3-3-|

Chorus 2:
F|-----------------|-----------------|-----------------|-----------------|
C|-----------------|-----------------|-----------------|-----------------|
G|-3-3-3-3---------|-6-6-6-6---------|-3-3-3-3---------|-6-6-6-6---------|
D|---------4-4-4-4-|---------6-6-6-6-|---------4-4-4-4-|---------6-6-6-6-|

F|-----------------|-----------------|-----------------|-----------------|
C|-----------------|-----------------|-----------------|-----------------|
G|-3-3-3-3---------|-6-6-6-6---------|-3-3-3-3-3-3-3-3-|-1-1-1-1-1-1-1-1-|
D|---------4-4-4-4-|---------6-6-6-6-|-----------------|-----------------|

F|-----------------|-----------------|-----------------|-----------------|
C|-----------------|-----------------|-----------------|-----------------|
G|-0-0-0-0---------|-3-3-3-3---------|-0-0-0-0---------|-3-3-3-3---------|
D|---------1-1-1-1-|---------3-3-3-3-|---------1-1-1-1-|---------3-3-3-3-|

F|-----------------|-----------------|-----------------|
C|-----------------|-----------------|-----------------|
G|-0-0-0-0---------|-3-3-3-3---------|-0-0-0-0-0-0-0-0-|
D|---------1-1-1-1-|---------3-3-3-3-|-----------------|

Bridge:
F|-------|-------|-------|
C|-------|-------|-------|
G|-------|-0-----|-----5-|
D|-3-----|-----3-|-1-----|

F|-----------------|-----------------|-----------------|-----------------|X2
C|-----------------|-----------------|-----------------|-----------------|X2
G|-5-5-5-5-5-5-5-5-|-5-5-5-5-5-5-5-5-|-----------------|-----------------|X2
D|-----------------|-----------------|-5-5-5-5-5-5-5-5-|-5-5-5-5-5-5-5-5-|X2

Solo: song speeds up. X2
F|---------------------------------|---------------------------------|
C|---------------------------------|---------------------------------|
G|---------------------------------|---------------------------------|
D|-1-1-1-1-1-1-1-1-1-1-1-1-1-1-1-1-|-5-5-5-5-5-5-5-5-5-5-5-5-5-5-5-5-|

F|---------------------------------|---------------------------------|
C|---------------------------------|---------------------------------|
G|-5-5-5-5-5-5-5-5-5-5-5-5-5-5-5-5-|-3-3-3-3-3-3-3-3-3-3-3-3-3-3-3-3-|
D|---------------------------------|---------------------------------|

Bridge 2: (Intro again)
F|-------|-------|-------|-------|-------|
C|-------|-------|-------|-------|-------|
G|-0~~~--|-------|-0-----|-------|-------|
D|-------|-1~~~--|-------|-3-----|-1~~~--|

Bridge 3: song speeds down. X2
F|-----------------|-----------------|-----------------|-----------------|
C|-----------------|-----------------|-----------------|-----------------|
G|-0-0-0-0---------|-3-3-3-3---------|-0-0-0-0---------|-3-3-3-3---------|
D|---------1-1-1-1-|---------3-3-3-3-|---------1-1-1-1-|---------3-3-3-3-|

Pre-Chorus 3: X2
F|-----------------|-----------------|-----------------|-----------------|
C|-----------------|-----------------|-----------------|-----------------|
G|-----------------|-3-3-3-3-3-3-3-3-|-0-0-0-0-0-0-0-0-|-----------------|
D|-1-1-1-1-1-1-1-1-|-----------------|-----------------|-3-3-3-3-3-3-3-3-|

Chorus 3/Outro:
F|-----------------|-----------------|-----------------|-----------------|
C|-----------------|-----------------|-----------------|-----------------|
G|-3-3-3-3---------|-6-6-6-6---------|-3-3-3-3---------|-6-6-6-6---------|
D|---------4-4-4-4-|---------6-6-6-6-|---------4-4-4-4-|---------6-6-6-6-|

F|-----------------|-----------------|-----------------|-----------------|
C|-----------------|-----------------|-----------------|-----------------|
G|-3-3-3-3---------|-6-6-6-6---------|-3-3-3-3-3-3-3-3-|-1-1-1-1-1-1-1-1-|
D|---------4-4-4-4-|---------6-6-6-6-|-----------------|-----------------|

F|-----------------|-----------------|-----------------|-----------------|
C|-----------------|-----------------|-----------------|-----------------|
G|-0-0-0-0---------|-3-3-3-3---------|-0-0-0-0---------|-3-3-3-3---------|
D|---------1-1-1-1-|---------3-3-3-3-|---------1-1-1-1-|---------3-3-3-3-|

F|-----------------|-----------------|-----------------|------------|---------|
C|-----------------|-----------------|-----------------|------------|---------|
G|-0-0-0-0---------|-3-3-3-3---------|-0-0-0-0-0-0-0-0-|-3--5-------|-0-0---0-|
D|---------1-1-1-1-|---------3-3-3-3-|-----------------|-------1--3-|-----3---|


thats it, enjoy.



| /  slide up
| \  slide down
| h  hammer-on
| p  pull-off
| ~  vibrato
| +  harmonic
| x  Mute note
===============================================================================
Добавлено: 31.05.2015
Другие материалы по этой песне:

Страница создана 21.04.2012
http://primanota.ru/freedom-call/island-of-dreams-chords.htm
Привет, Гость.
Предлагаем пройти революционный курс по гитаре.
Подарок от PrimaNota.Ru, забирай!