PrimaNota.ru - самый крупный в мире бесплатный архив песенных текстов, аккордов, табулатур и нот


Freedom Call - Eternal Flame - текст песни, таба, видео

Регистрация Запомнить меня
Войти через:  Facebook Google Twitter Vk Yandex Mail.ru

Freedom Call - Eternal Flame - текст песни, таба, видео

Печатать
Просмотров: 156
----------------------------------------------------------------------------
                            ETERNAL FLAME - FREEDOM CALL
----------------------------------------------------------------------------
Album: Circle of Life, Track 11
Released March 21 2005

Tab por, Carlos/Brasil   July 16th 2006
mail me at   satchboogie000@hotmail.com
for any corrections

Tunning in EADGBe  both guitars

Solo Guitar part
Intro
0:14
e|------------------------------------------------------------------|
B|---/5~---0-5/7~----0-7/9--10--12--5--5h7~-------------------------|
G|------------------------------------------------------------------|
D|------------------------------------------------------------------|
A|------------------------------------------------------------------|
E|------------------------------------------------------------------|

0:21
e|------------------------------------------------------------------|
B|---/5~---0-5/7~----0-9/12~~~~-------------------------------------|
G|------------------------------------------------------------------|
D|------------------------------------------------------------------|
A|------------------------------------------------------------------|
E|------------------------------------------------------------------|

Main riff - 0:28
e|-----------9--7--6-------6--------------9--7--6-------6-----------|
B|------7~-------------7------9~--------------------7------7~-------|
G|------------------------------------------------------------------|
D|------------------------------------------------------------------|
A|------------------------------------------------------------------|
E|------------------------------------------------------------------|

0:32
e|----------6-----------6-------6--7-----6--7--9~-------------------|
B|-------9-----7~----9----7--9--------9-----------------------------|
G|------------------------------------------------------------------|
D|------------------------------------------------------------------|
A|------------------------------------------------------------------|
E|------------------------------------------------------------------|

0:35
e|-----------9--7--6-------6----------9--7--6-------6---------------|
B|------7~-------------7------9~----------------7------9~-----------|
G|------------------------------------------------------------------|
D|------------------------------------------------------------------|
A|------------------------------------------------------------------|
E|------------------------------------------------------------------|

0:38
e|-------6-7------6-7---------6--7--9--9--7--6----------------------|
B|------------9~------9~---9--------------------9---7~~~\0----------|
G|------------------------------------------------------------------|
D|------------------------------------------------------------------|
A|------------------------------------------------------------------|
E|------------------------------------------------------------------|

Verse 1 - 0:43

Bridge - 1:10

Chorus 1 / main riff
1:24
e|-----------9--7--6-------6--------------9--7--6-------6-----------|
B|------7~-------------7------9~--------------------7------7~-------|
G|------------------------------------------------------------------|
D|------------------------------------------------------------------|
A|------------------------------------------------------------------|
E|------------------------------------------------------------------|

1:28
e|----------6-----------6-------6--7-----6--7--9~-------------------|
B|-------9-----7~----9----7--9--------9-----------------------------|
G|------------------------------------------------------------------|
D|------------------------------------------------------------------|
A|------------------------------------------------------------------|
E|------------------------------------------------------------------|

1:32
e|-----------9--7--6-------6----------9--7--6-------6---------------|
B|------7~-------------7------9~----------------7------9~-----------|
G|------------------------------------------------------------------|
D|------------------------------------------------------------------|
A|------------------------------------------------------------------|
E|------------------------------------------------------------------|

1:36
e|-------6-7------6-7---------6--7--9--9--7--6----------------------|
B|------------9~------9~---9--------------------9---7---------------|
G|------------------------------------------------------------------|
D|------------------------------------------------------------------|
A|------------------------------------------------------------------|
E|------------------------------------------------------------------|

1:39 Repeat Chorus 1     the B|--------7~~~\0--- part is only at the end

Verse 2 - 1:54

Bridge 2 -2:22

Chorus 2
2:36 - Same as Chorus 1

Interlude - 3:04
3:18 - outro 1
e|-----------------------------------------------|
B|----7~----5~~/9~~~~----------------------------|
G|-----------------------------------------------|
D|-----------------------------------------------|
A|-----------------------------------------------|
E|-----------------------------------------------|

3:35 Repeat outro 1

3:33 Main riff

3:44 Riff Mod / Ending :(
e|-------6-7------6-7---------6--7--9--7--9--11--12-----------------|
B|------------9~------9~---9----------------------------------------|
G|------------------------------------------------------------------|
D|------------------------------------------------------------------|
A|------------------------------------------------------------------|
E|------------------------------------------------------------------|

3:46
e|----------11--9--8------8----------11--9--8-----8-----------------|
B|------9~------------9------11~---------------9-----9~-------------|
G|------------------------------------------------------------------|
D|------------------------------------------------------------------|
A|------------------------------------------------------------------|
E|------------------------------------------------------------------|
3:49
e|-----------8------------8-----------8--9-------8--9--11~----------|
B|-------11-----9~----11------9--11---------11----------------------|
G|------------------------------------------------------------------|
D|------------------------------------------------------------------|
A|------------------------------------------------------------------|
E|------------------------------------------------------------------|
3:53
e|----------11--9--8------8----------11--9--8-----8-----------------|
B|------9~------------9------11~---------------9-----11~------------|
G|------------------------------------------------------------------|
D|------------------------------------------------------------------|
A|------------------------------------------------------------------|
E|------------------------------------------------------------------|
3:56
e|-------6-7-------6-7----------8--9--11--11--9--8------------------|
B|------------11~------11----11---------------------11---9----------|
G|------------------------------------------------------------------|
D|------------------------------------------------------------------|
A|------------------------------------------------------------------|
E|------------------------------------------------------------------|

Repeat Ending 2x

i thinks that how solo is players, like 90% correct im shure it is

Now Rhythm gtr is something like

Intro
e|------------------------------------------------------------------|
B|------------------------------------------------------------------|
G|---------6-----8------4----6---------------------6---4--6---------|
D|---4-----6-----8------4----6------------4----6---6---4--6---------|
A|---4-----4-----6------2----4------------4----6---4---2--4---------|
E|---2------------------------------------2----4--------------------|

Verse 1
e|----------------------------------------------------------------------|
B|----------------------------------------------------------------------|
G|-------------------------------------------------6-------6-------6----|
D|------4------------6----------4-------4-------4--6-------6-------6----|
A|---4-----4------6-----6-------4-------4-------4--4--4-4--4--4-4--4----|
E|2------------4----------------2--2-2--2--2-2--2-----------------------|
PM^..^ ....^...^........^..........^.^.....^.^ .......^.^.....^.^.......

e|--------------------------------------------------------------------------|
B|8-----8-----8-------------------------------------------------------------|
G|8-----8-----8-------------------------------------------------------------|
D|6-6-6-6-6-6-6-------4-----------6-----4-------4-------4--6-------6------6-|
A|-----------------4-----4-----6-----6--4-------4-------4--6-------6------6-|
E|--------------2-----------4-----------2--2-2--2--2-2--2--4--4-4--4--4-4-4-|
PM..^.^...^.^...^..^.....^..^..^.....^.....^.^.....^.^........^.^.....^.^.

e|--------------------------------------------------------------------------|
B|--------------------------------------------------------------------------|
G|--6-----6-----6---------------------------2---9---2---7-------------------|
D|--6-----6-----6------4-----------6--------2---9---2---7-----4---7---9---9-|
A|--4-4-4-4-4-4-4---4----4------4-----6-----0---7---0---9-----4---7---9---9-|
E|---------------2-----------4------------------------------9/2---5---7---7-|
PM....^.^...^.^..^..^....^...^..^.....^....| Bridge 1 from here


Chorus is this, 2x
e|------------------------------------------------------------------|
B|------------------------------------------------------------------|
G|---------6-----8------4----6---------------------6---4--6---------|
D|---4-----6-----8------4----6------------4----6---6---4--6---------|
A|---4-----4-----6------2----4------------4----6---4---2--4---------|
E|---2------------------------------------2----4--------------------|

Verse 2 same as verse 1

Bridge 2 is same as 1

Chorus 2 is also the same as chorus 1

3:04 Interlude
e|------------------------------------------------------------------|
B|------------------------------------------------------------------|
G|-------------7-----------------------4----------------------------|
D|-----7-7--7--7-----------4---4-4--4--4----------7-----------------|
A|-----5-5--5--5---4-4--4--4---2-2--2--2--7-7--7--7-----------------|
E|-----------------2-2--2--2--------------5-5--5--5-----------------|
PM.....^.^..^......^.^..^......^.^..^.....^.^..^..................

3:10
e|-----------------------------------------------------|
B|-----------------------------------------------------|
G|--4-----4-----------------6-----6-----6--------------|
D|--4-----4-----6-----6-----6-----6-----6--------------|
A|--2-2-2-2-2-2-6-----6-----4-4-4-4-4-4-4--------------|
E|--------------4-4-4-4-4-4----------------------------|
PM....^.^...^.^...^.^...^.^...^.^...^.^.....

3:18
e|------------------------------------------------|
B|----9~~----7~~/11~~~~---------------------------|
G|------------------------4---6-------------------|
D|------------------------4---6-------------------|
A|------------------------2---4-------------------|
E|------------------------------------------------|

3:25
e|-------------------------------------------------|
B|---9~~----7~~------------------------------------|
G|---------------------------6-----6\\-------------|
D|---------------4-4-4...----6-----6\\-------------|
A|---------------2-2-2...----4444444\\-------------|
E|-------------------------------------------------|
PM...............^.^.^.......^^^^^^...................

3:32 - Ending
e|------------------------------------------------------------|
B|------------------------------------------------------------|
G|-----6-6\----8----4--6----------------6--6--6-6-6-6---------|
D|--4--6-6\----8----4--6---4---6-6\-----6--6--6-6-6-6---------|
A|--4--4-4\----6----2--4---4---6-6\-----4--4--4-4-4-4---------|
E|--2----------------------2---4-4\---------------------------|

3:45 2x
e|-----------------------------------------------------------|
B|-----------------------------------------------------------|
G|---------8-----10------6--8---------------8---6--8---------|
D|---6-----8-----10------6--8------6----8---8---6--8---------|
A|---6-----6-----8-------4--6------6----8---6---4--6---------|
E|---4-----------------------------4----6--------------------|

4:14
e|-----------------------------------------------------------|
B|-----------------------------------------------------------|
G|---------8-8----10-----6-6--8-8--10-10\0-------------------|
D|---6-----8-8----10-----6-6--8-8--10-10\0-------------------|
A|---6-----6-6----8------4-4--6-6--8--8\\0-------------------|
E|---4-------------------------------------------------------|

| /  slide up
| \  slide down
| h  hammer-on
| p  pull-off
| ~  vibrato
| +  harmonic
| x  Mute note
| ^ Palm Mute
| ... in PM line = Nothing


Thats it

i THINK thats how its played, some parts might me wrong in the solo guitar and rhythm im 
shure 100% is right
Добавлено: 18.07.2012
Другие материалы по этой песне:

Страница создана 13.03.2012
http://primanota.ru/freedom-call/eternal-flame-chords.htm
Привет, Гость.
Предлагаем пройти революционный курс по гитаре.
Подарок от PrimaNota.Ru, забирай!