PrimaNota.ru - самый крупный в мире бесплатный архив песенных текстов, аккордов, табулатур и нот


Freedom Call - Carry On - текст песни, таба, видео

Регистрация Запомнить меня
Войти через:  Facebook Google Twitter Vk Yandex Mail.ru

Freedom Call - Carry On - текст песни, таба, видео

Печатать
Просмотров: 227
Уроки эстрадного вокала в Санкт-Петербурге
-------------------------------------------------------------------------------
                             CARRY ON - FREEDOM CALL
-------------------------------------------------------------------------------
Tabbed by: Power_Metal_Dom
Email: 


THIS IS JUST A ROUGH GUIDE. Quite a simple song to play so I wondered why I
couldn't find tabs for this anywhere online. Anyway I decided to do it for
myself and to share the results :) This is likely not 100% accurate but it 
sounds good enough when playing and the solo seems accurate.
Feel free to improve, correct and post elsewhere.



Tuning: Standard (EADGBE)

    {Pick scrape}  "Carry on.."   {Palm muted}
e|---------------------------------------------------------------------------|
B|---------------------------------------------------------------------------|
G|---------------------------------------------------------------------------|
D|-------------------6---8--------------------8--8888-888--------------------|
A|--14\----------4---4---6---6----4-4444-444--6--6666-666--6--6666-6666-666--|
E|--12\----------2-----------4----2-2222-222---------------4--4444-4444-444--|

    "And ride on.."

e|---------------------------------------------------------------------------|
B|---------------------------------------------------------------------------|
G|---------------------------------------------------------------------------|
D|------6---8--------------------8--8888-888----------------------1--111-----|
A|--4---4---6---6----4-4444-444--6--6666-666--6--6666-6666-666----1--111-----|
E|--2-----------4----2-2222-222---------------4--4444-4444-444---------------|


Bridge

e|---------------------------------------------------------------------------|
B|---11--9-----9--7-----7--6----6--4-----4---2-----2---0---------------------|
G|---------11-------10--------8-------7--------4----------3------------------|  x2
D|----------------------------------------------------------~1---------------|
A|---------------------------------------------------------------------------|
E|---------------------------------------------------------------------------|

Verse 1

"We are strangers.."

e|---------------------------------------------------------------------------|
B|---------------------------------------------------------------------------|
G|---------------------------------------------------------------------------|
D|--------6h8-------6h8-------6h8------6h8-------2h4-------2h4-------2h4-----|
A|---66-6-6----66-6-6----66-6-6---66-6-6--6--2-2-2----22-2-2----22-2-2-------|
E|---------------------------------------------------------------------------|

                 "And show the world.."

e|---------------------------------------------------------------------------|
B|---------------------------------------------------------------------------|
G|---------------------------------------------------------------------------|
D|--------2h4-----------------------------------------------1h3-------1h3----|
A|---22-2-2--2------4h6-------4h6-------4h6-------4h6---1-1-1----11-1-1------|
E|--------------4-4-4----44-4-4----44-4-4----44-4-4--4-----------------------|

                          "We are standing.."

e|---------------------------------------------------------------------------|
B|---------------------------------------------------------------------------|
G|---------------------------------------------------------------------------|
D|-------1h3-------1h3--------6h8-------6h8-------6h8------6h8----------2h4--|
A|--11-1-1----11-1-1-----66-6-6----66-6-6----66-6-6---66-6-6--6----2-2-2-----|
E|---------------------------------------------------------------------------|

                                  "We're breaking down.." 


e|---------------------------------------------------------------------------|
B|---------------------------------------------------------------------------|
G|---------------------------------------------------------------------------|
D|--------2h4-------2h4-------2h4--------------------------------------------|
A|---22-2-2----22-2-2----22-2-2-------4h6-------4h6-------4h6-------4h6------|
E|--------------------------------4-4-4----44-4-4----44-4-4----44-4-4--------|

e|---------------------------------------------------------------------------|
B|---------------------------------------------------------------------------|
G|---------------------------------------------------------------------------|
D|------1h3-------1h3-------1h3-------1h3------------------------------------|
A|--1-1-1----11-1-1----11-1-1----11-1-1--------------------------------------|
E|---------------------------------------------------------------------------|

Chorus

    "Carry on.."   {Palm muted}
e|---------------------------------------------------------------------------|
B|---------------------------------------------------------------------------|
G|---------------------------------------------------------------------------|
D|-------6---8--------------------8--8888-888--------------------------------|
A|---4---4---6---6----4-4444-444--6--6666-666--6--6666-6666-666--------------|
E|---2-----------4----2-2222-222---------------4--4444-4444-444--------------|

    "And ride on.."

e|---------------------------------------------------------------------------|
B|---------------------------------------------------------------------------|
G|---------------------------------------------------------------------------|
D|------6---8--------------------8--8888-888---------------------------------|
A|--4---4---6---6----4-4444-444--6--6666-666--6--6666-6666-666---------------|
E|--2-----------4----2-2222-222---------------4--4444-4444-444---------------|


Verse 2

"We are guardians.."

e|---------------------------------------------------------------------------|
B|---------------------------------------------------------------------------|
G|---------------------------------------------------------------------------|
D|--------6h8-------6h8-------6h8------6h8-------2h4-------2h4-------2h4-----|
A|---66-6-6----66-6-6----66-6-6---66-6-6--6--2-2-2----22-2-2----22-2-2-------|
E|---------------------------------------------------------------------------|

                 "And we are bound.."

e|---------------------------------------------------------------------------|
B|---------------------------------------------------------------------------|
G|---------------------------------------------------------------------------|
D|--------2h4-----------------------------------------------1h3-------1h3----|
A|---22-2-2--2------4h6-------4h6-------4h6-------4h6---1-1-1----11-1-1------|
E|--------------4-4-4----44-4-4----44-4-4----44-4-4--4-----------------------|

                          "When our hearts.."

e|---------------------------------------------------------------------------|
B|---------------------------------------------------------------------------|
G|---------------------------------------------------------------------------|
D|-------1h3-------1h3--------6h8-------6h8-------6h8------6h8----------2h4--|
A|--11-1-1----11-1-1-----66-6-6----66-6-6----66-6-6---66-6-6--6----2-2-2-----|
E|---------------------------------------------------------------------------|

                                  "And tell the world.." 


e|---------------------------------------------------------------------------|
B|---------------------------------------------------------------------------|
G|---------------------------------------------------------------------------|
D|--------2h4-------2h4-------2h4--------------------------------------------|
A|---22-2-2----22-2-2----22-2-2-------4h6-------4h6-------4h6-------4h6------|
E|--------------------------------4-4-4----44-4-4----44-4-4----44-4-4--------|

e|---------------------------------------------------------------------------|
B|---------------------------------------------------------------------------|
G|---------------------------------------------------------------------------|
D|------1h3-------1h3-------1h3-------1h3------------------------------------|
A|--1-1-1----11-1-1----11-1-1----11-1-1--------------------------------------|
E|---------------------------------------------------------------------------|

Chorus

    "Carry on.."   {Palm muted}
e|---------------------------------------------------------------------------|
B|---------------------------------------------------------------------------|
G|---------------------------------------------------------------------------|
D|-------6---8--------------------8--8888-888--------------------------------|
A|---4---4---6---6----4-4444-444--6--6666-666--6--6666-6666-666--------------|
E|---2-----------4----2-2222-222---------------4--4444-4444-444--------------|

    "And ride on.."

e|---------------------------------------------------------------------------|
B|---------------------------------------------------------------------------|
G|---------------------------------------------------------------------------|
D|------6---8--------------------8--8888-888---------------------------------|
A|--4---4---6---6----4-4444-444--6--6666-666--6--6666-6666-666---------------|
E|--2-----------4----2-2222-222---------------4--4444-4444-444---------------|

Solo

e|---------------------------------------------------------------------------|
B|----------------------------11-13-11-----------13-~11--~2/~11----11-13-14--|
G|---/5/~10----10-12-13-12-13----------13-12--------------------10-----------|
D|----------10-------------------------------~11-----------------------------|
A|---------------------------------------------------------------------------|
E|---------------------------------------------------------------------------|

e|-----------13----13-16-15-161616-~18---20-18-16-18-16-15-16-15-13-15-13----|
B|--13-14-16----16--------------------------------------------------------16-|
G|---------------------------------------------------------------------------|
D|---------------------------------------------------------------------------|
A|---------------------------------------------------------------------------|
E|---------------------------------------------------------------------------|

e|--13----13-----------------------------------------------------------------|
B|-----16----16-14-16-14-13-14-13----13--------------------------------------|
G|--------------------------------15----15-13----------------15----15-17-15--|
D|--------------------------------------------15-17-18-17-18----18-----------|
A|---------------------------------------------------------------------------|
E|---------------------------------------------------------------------------|


e|--------------------------------------------------------16-20-18-16-~18----|
B|--------------16-brbr18----------15-~18----------15-~20--------------------|
G|--17-18-17-18-----------------16--------------16---------------------------|
D|------------------------15-17-----------15-17------------------------------|
A|---------------------------------------------------------------------------|
E|---------------------------------------------------------------------------|

Chorus (key change)

    "Carry on.."   {Palm muted}
e|---------------------------------------------------------------------------|
B|---------------------------------------------------------------------------|
G|---------------------------------------------------------------------------|
D|-------8---10-------------------10--10101010-101010------------------------|
A|---6---6---8---8----6-6666-666--8---8-8-8-8--8-8-8---8-8888-8888-888-------|
E|---4-----------6----4-4444-444-----------------------6-6666-6666-666-------|

    "And ride on.."

e|---------------------------------------------------------------------------|
B|---------------------------------------------------------------------------|
G|---------------------------------------------------------------------------|
D|------8---10-------------------10-10101010-101010--------------------------|
A|--6---6---8---8----6-6666-666--8--8-8-8-8--8-8-8--8-8888-8888-888----------|
E|--4-----------6----4-4444-444---------------------6-6666-6666-666----------|

e|---------------------------------------------------------------------------|
B|--13-11----11--------------------------------------------------------------|
G|--------13----13-12----12-13-13131313\13-----------------------------------|
D|--------------------13-----------------------------------------------------|
A|---------------------------------------------------------------------------|
E|---------------------------------------------------------------------------|


************************************

| /   slide up
| \   slide down
| h   hammer-on
| p   pull-off
| ~   vibrato
| +   harmonic
| x   Mute note
| b   Bend
| pb  Pre-bend
| br  Bend release
| pbr Pre-bend release
| brb Bend release bend

************************************
Добавлено: 13.05.2012
Другие материалы по этой песне:
  • Аккорды и текст

Страница создана 13.05.2012
http://primanota.ru/freedom-call/carry-on-chords.htm
Привет, Гость.
Предлагаем пройти революционный курс по гитаре.
Подарок от PrimaNota.Ru, забирай!