PrimaNota.ru - самый крупный в мире бесплатный архив песенных текстов, аккордов, табулатур и нот


Free - Mouthful Of Grass - текст песни, таба, видео

Регистрация Запомнить меня
Войти через:  Facebook Google Twitter Vk Yandex Mail.ru

Free - Mouthful Of Grass - текст песни, таба, видео

Печатать
Просмотров: 118
Авторы музыки: Paul Rodgers, Andy Fraser

Mouthful of Grass

E|-0-0-0-0-|          |--------------------------------|
B|-0-0-0-0-|          |----3-----3-----3-----3-----3---|
G|-0-0-0-0-|          |--2-----2-----2-----2-----2-----|
D|-0-0-0-0-|          |0-----0-----0-----0-----0-----0-|
A|-0-0-0-0-|          |--------------------------------|
E|-0-0-0-0-|          |--------------------------------|


E|-0-0-0-0-|          |--------------------------------|
B|-0-0-0-0-|          |----5-----5-----5-----5-----5---|
G|-0-0-0-0-|          |--4-----4-----4-----4-----4-----|
D|-0-0-0-0-|          |0-----0-----0-----0-----0-----0-|
A|-0-0-0-0-|          |--------------------------------|
E|-0-0-0-0-|          |--------------------------------|


E|-0-0-0-0-|          |----3-----3-----3-----3-----3---|
B|-0-0-0-0-|          |--0-----0-----0-----0-----0-----|
G|-0-0-0-0-|          |--------------------------------|
D|-0-0-0-0-|          |0-----0-----0-----0-----0-----0-|
A|-0-0-0-0-|          |--------------------------------|
E|-0-0-0-0-|          |--------------------------------|


E|-0-0-0-0-|          |----2-----2---------8-----8-----|
B|-0-0-0-0-|          |--1-----1---1-----7-----7---7---|
G|-0-0-0-0-|          |--------------------------------|
D|-0-0-0-0-|          |0-----0-------0-0-----0-------0-|
A|-0-0-0-0-|          |--------------------------------|
E|-0-0-0-0-|          |--------------------------------|


E|-0-0-0-0-|          |--------------------------------|
B|-0-0-0-0-|          |----3-----3-----3-----3-----3---|
G|-0-0-0-0-|          |--2-----2-----2-----2-----2-----|
D|-0-0-0-0-|          |0-----0-----0-----0-----0-----0-|
A|-0-0-0-0-|          |--------------------------------|
E|-0-0-0-0-|          |--------------------------------|


E|-0-0-0-0-|          |--------------------------------|
B|-0-0-0-0-|          |----5-----5-----5-----5-----5---|
G|-0-0-0-0-|          |--4-----4-----4-----4-----4-----|
D|-0-0-0-0-|          |0-----0-----0-----0-----0-----0-|
A|-0-0-0-0-|          |--------------------------------|
E|-0-0-0-0-|          |--------------------------------|


E|-0-0-0-0-|          |----3-----3-----3-----3-----3---|
B|-0-0-0-0-|          |--0-----0-----0-----0-----0-----|
G|-0-0-0-0-|          |--------------------------------|
D|-0-0-0-0-|          |0-----0-----0-----0-----0-----0-|
A|-0-0-0-0-|          |--------------------------------|
E|-0-0-0-0-|          |--------------------------------|


E|-0-0-0-0-|          |--2-----------------------------|
B|-0-0-0-0-|          |--3-----------------------------|
G|-0-0-0-0-|          |--------------------------------|
D|-0-0-0-0-|          |0-0-----------------------------|
A|-0-0-0-0-|          |--------------------------------|
E|-0-0-0-0-|          |--------------------------------|






E|-0-0-0-0-|          |---------0h2-------2h3-------0h2--------|
B|-0-0-0-0-|          |-----0-3-----3---------3----------------|
G|-0-0-0-0-|          |--0h2----------2---------2--------------|
D|-0-0-0-0-|          |0--------0-------0-0-------0-0---------0|
A|-0-0-0-0-|          |---------------------------------0-0h2--|
E|-0-0-0-0-|          |----------------------------------------|


E|-0-0-0-0-|          |---------0h2-------2h3-------0h2--------|
B|-0-0-0-0-|          |-----0-3-----3---------3----------------|
G|-0-0-0-0-|          |--0h2----------2---------2--------------|
D|-0-0-0-0-|          |0--------0-------0-0-------0-0---------0|
A|-0-0-0-0-|          |---------------------------------0-0h2--|
E|-0-0-0-0-|          |----------------------------------------|


E|-0-0-0-0-|          |---------0h2-------2h3-------0h2--------|
B|-0-0-0-0-|          |-----0-3-----3---------3----------------|
G|-0-0-0-0-|          |--0h2----------2---------2--------------|
D|-0-0-0-0-|          |0--------0-------0-0-------0-0---------0|
A|-0-0-0-0-|          |---------------------------------0-0h2--|
E|-0-0-0-0-|          |----------------------------------------|


E|-0-0-0-0-|          |---------0h2-------2h3-------0h2--------|
B|-0-0-0-0-|          |-----0-3-----3---------3----------------|
G|-0-0-0-0-|          |--0h2----------2---------2--------------|
D|-0-0-0-0-|          |0--------0-------0-0-------0-0---------0|
A|-0-0-0-0-|          |---------------------------------0-0h2--|
E|-0-0-0-0-|          |----------------------------------------|


E|-0-0-0-0-|          |--------------------------0h2-------|
B|-0-0-0-0-|          |----------------------0-3-----3-----|
G|-0-0-0-0-|          |----0-----0-------0h2-----------2---|
D|-0-0-0-0-|          |--2-----2---0---0-----------------0-|
A|-0-0-0-0-|          |3-----2-------2---------------------|
E|-0-0-0-0-|          |------------------------------------|


E|-0-0-0-0-|          |--------------------------0h2-------|
B|-0-0-0-0-|          |----------------------0-3-----3-----|
G|-0-0-0-0-|          |----0-----0-------0h2-----------2---|
D|-0-0-0-0-|          |--2-----2---0---0-----------------0-|
A|-0-0-0-0-|          |3-----2-------2---------------------|
E|-0-0-0-0-|          |------------------------------------|


E|-0-0-0-0-|          |--------------------------0h2-------|
B|-0-0-0-0-|          |----------------------0-3-----3-----|
G|-0-0-0-0-|          |----0-----0-------0h2-----------2---|
D|-0-0-0-0-|          |--2-----2---0---0-----------------0-|
A|-0-0-0-0-|          |3-----2-------2---------------------|
E|-0-0-0-0-|          |------------------------------------|


E|-0-0-0-0-|          |------------------------------------|
B|-0-0-0-0-|          |------------------------------------|
G|-0-0-0-0-|          |----0-----0-------0h2---------------|
D|-0-0-0-0-|          |--2-----2---0---0-0-----------------|
A|-0-0-0-0-|          |3-----2-------2---0-----------------|
E|-0-0-0-0-|          |------------------------------------|


E|-0-0-0-0-|          |---------0h2-------2h3-------0h2--------|
B|-0-0-0-0-|          |-----0-3-----3---------3----------------|
G|-0-0-0-0-|          |--0h2----------2---------2--------------|
D|-0-0-0-0-|          |0--------0-------0-0-------0-0---------0|
A|-0-0-0-0-|          |---------------------------------0-0h2--|
E|-0-0-0-0-|          |----------------------------------------|


E|-0-0-0-0-|          |---------0h2-------2h3-------0h2--------|
B|-0-0-0-0-|          |-----0-3-----3---------3----------------|
G|-0-0-0-0-|          |--0h2----------2---------2--------------|
D|-0-0-0-0-|          |0--------0-------0-0-------0-0---------0|
A|-0-0-0-0-|          |---------------------------------0-0h2--|
E|-0-0-0-0-|          |----------------------------------------|


E|-0-0-0-0-|          |---------0h2-------2h3-------0h2--------|
B|-0-0-0-0-|          |-----0-3-----3---------3----------------|
G|-0-0-0-0-|          |--0h2----------2---------2--------------|
D|-0-0-0-0-|          |0--------0-------0-0-------0-0---------0|
A|-0-0-0-0-|          |---------------------------------0-0h2--|
E|-0-0-0-0-|          |----------------------------------------|


E|-0-0-0-0-|          |---------0h2-------2h3-----2h3-----2h3----|
B|-0-0-0-0-|          |-----0-3-----3---------3-------3-------3--|
G|-0-0-0-0-|          |--0h2----------2---------2-------2-------2|
D|-0-0-0-0-|          |0--------0-------0-0-------0-------0------|
A|-0-0-0-0-|          |------------------------------------------|
E|-0-0-0-0-|          |------------------------------------------|


E|-0-0-0-0-|          |2h3----2h3------------2-----2---------2---|
B|-0-0-0-0-|          |----3-------3-------3-----3---3-----2-----|
G|-0-0-0-0-|          |------2-------2---------------------------|
D|-0-0-0-0-|          |----------------0-0-----0-------0-0-----0-|
A|-0-0-0-0-|          |------------------------------------------|
E|-0-0-0-0-|          |------------------------------------------|


E|-0-0-0-0-|          |----0-------0-----3-----3------3--|
B|-0-0-0-0-|          |--0-------0-----0-----0-----0-----|
G|-0-0-0-0-|          |----------------------------------|
D|-0-0-0-0-|          |0-----0-0-----0-----0-----0------0|
A|-0-0-0-0-|          |----------------------------------|
E|-0-0-0-0-|          |----------------------------------|


E|-0-0-0-0-|          |------0---------------3--------|
B|-0-0-0-0-|          |----3---3-----------3---3------|
G|-0-0-0-0-|          |--2-------2---2---2-------2---2|
D|-0-0-0-0-|          |0-----------0---0-----------0--|
A|-0-0-0-0-|          |-------------------------------|
E|-0-0-0-0-|          |-------------------------------|


E|-0-0-0-0-|          |------0---------------3--------|
B|-0-0-0-0-|          |----3---3-----------3---3------|
G|-0-0-0-0-|          |--2-------2---2---2-------2---2|
D|-0-0-0-0-|          |0-----------0---0-----------0--|
A|-0-0-0-0-|          |-------------------------------|
E|-0-0-0-0-|          |-------------------------------|


E|-0-0-0-0-|          |------0---------------3--------|
B|-0-0-0-0-|          |----3---3-----------3---3------|
G|-0-0-0-0-|          |--2-------2---2---2-------2---2|
D|-0-0-0-0-|          |0-----------0---0-----------0--|
A|-0-0-0-0-|          |-------------------------------|
E|-0-0-0-0-|          |-------------------------------|


E|-0-0-0-0-|          |------0---------3--------------|
B|-0-0-0-0-|          |----3---3-------3--------------|
G|-0-0-0-0-|          |--2-------2---2-2--------------|
D|-0-0-0-0-|          |0-----------0---0--------------|
A|-0-0-0-0-|          |-------------------------------|
E|-0-0-0-0-|          |-------------------------------|


E|-0-0-0-0-|          |--------------------------------|
B|-0-0-0-0-|          |----3-----3-----3-----3-----3---|
G|-0-0-0-0-|          |--2-----2-----2-----2-----2-----|
D|-0-0-0-0-|          |0-----0-----0-----0-----0-----0-|
A|-0-0-0-0-|          |--------------------------------|
E|-0-0-0-0-|          |--------------------------------|


E|-0-0-0-0-|          |--------------------------------|
B|-0-0-0-0-|          |----5-----5-----5-----5-----5---|
G|-0-0-0-0-|          |--4-----4-----4-----4-----4-----|
D|-0-0-0-0-|          |0-----0-----0-----0-----0-----0-|
A|-0-0-0-0-|          |--------------------------------|
E|-0-0-0-0-|          |--------------------------------|


E|-0-0-0-0-|          |----3-----3---------3-----3-----2|
B|-0-0-0-0-|          |--0-----0---0-------------------3|
G|-0-0-0-0-|          |------------------3-----3---3---2|
D|-0-0-0-0-|          |0-----0-------0-0-----0-------0-0|
A|-0-0-0-0-|          |---------------------------------|
E|-0-0-0-0-|          |---------------------------------|
Добавлено: 05.11.2013
Другие материалы по этой песне:
  • Аккорды и текст

Страница создана 19.09.2013
http://primanota.ru/free/mouthful-of-grass-chords.htm
Привет, Гость.
Предлагаем пройти революционный курс по гитаре.
Подарок от PrimaNota.Ru, забирай!