PrimaNota.ru - самый крупный в мире бесплатный архив песенных текстов, аккордов, табулатур и нот


Free - All right now 2 - бас-таба, видео

Регистрация Запомнить меня
Войти через:  Facebook Google Twitter Vk Yandex Mail.ru

Free - All right now 2 - бас-таба, видео

Печатать
Просмотров: 94


All Right Now.btab
Free
TablEdited by Jan Bjorklund for Chris

Basstab by Jan Bjorklund, Finland; 
jani_bjorklund@yahoo.se 
You are welcome to request for basstabs or standard notation 
Bienvenidos a pedirme transcripciones para el bajo 

Tuning : E A D G 	Time Signature: 4/4

 tempo 122       |        |       |       |       |        
|--------------------------------|--------------------------------|
|7-------7-------7-------7-------|7-------7-------7---------------|
|--------------------9-------9---|----9-------9-------9---7-------|
|--------------------------------|--------------------------------|

 |       |       |       |        |       |       |       |        
|--------------------------------|--------------------------------|
|7-------7---------------7-------|7-------7---------------7-------|
|----------------7---9-----------|----------------7---9-------9---|
|--------------------------------|--------------------------------|

 |       |       |       |        |       |       |       |        
|--------------------------------|--------------------------------|
|7-------7-------7-------7-------|7-------7-------7---------------|
|--------------------------------|--------------------9---7-------|
|--------------------------------|--------------------------------|

 |       |       |       |        |       |       |       |        
|--------------------------------|--------------------------------|
|7-------7-------7---------------|--------------------------------|
|--------------------9-----------|--------------------------------|
|------------------------7/--6---|5-------------------------------|

 |       |       |       |        |       |       |       |        
|--------------------------------|--------------------------------|
|-----------------and so on until the second time-----------------|
|-----------------that is a little bit different------------------|
|--------------------------------|--------------------------------|

 |       |       |       |        |       |       |       |        
|--------------------------------|--------------------------------|
|7-------7-------7-------7-------|7-------7-------7---------------|
|--------------------9-------9---|--------------------9---7-------|
|--------------------------------|--------------------------------|

 |       |       |       |        |       |       |       |        
|--------------------------------|--------------------------------|
|7-------7---------------7-------|7-----------7-------------------|
|----------------7---9-----------|--------------------9---7---9---|
|--------------------------------|--------------------------------|

 |       |       |       |        |       |       |       |        
|--------------------------------|------------9-------11--14--11--|
|7-------7-------7-------7-------|7-------------------------------|
|--------------------9-------9---|--------------------------------|
|--------------------------------|--------------------------------|

 |       |       |       |        |       |       |       |        
|--------------------------------|--------------------------------|
|7-------7-------7---------------|--------------------------------|
|--------------------9-----------|--------------------------------|
|------------------------7/--6---|5-------------------------------|

 |       |       |       |        |       |       |       |        
|--------------------------------|--------------------------------|
|-and the solo goes like this----|7-7---7---------7---7-----------|
|--------------------------------|--------7---9-----------9---7---|
|--------------------------------|--------------------------------|

 |       |       |       |        |       |       |       |        
|--------------------------------|--------------------------------|
|--------------------------------|7-7---7---------7---7-----------|
|10--------------9---------------|--------7---9-----------9---7---|
|--------------------------------|--------------------------------|

 |       |       |       |        |       |       |       |        
|--------------------------------|--------------------------------|
|--------------------------------|------and so on maby...---------|
|10--------------9---------------|--------------------------------|
|--------------------------------|--------------------------------|

Transcribe  6.0 transcription http://www.seventhstring.demon.co.uk/
Created with TablEdit http://www.tabledit.com/
http://www.geocities.com/jani_bjorklund/janis.html1058405404377


Добавлено: 12.10.2013
Другие материалы по этой песне:
  • Аккорды и текст

Страница создана 12.10.2013
http://primanota.ru/free/all-right-now-2-chords.htm
Привет, Гость.
Предлагаем пройти революционный курс по гитаре.
Подарок от PrimaNota.Ru, забирай!