PrimaNota.ru - самый крупный в мире бесплатный архив песенных текстов, аккордов, табулатур и нот


Free Throw - Kim Tastie - таба, видео

Регистрация Запомнить меня
Войти через:  Facebook Google Twitter Vk Yandex Mail.ru

Free Throw - Kim Tastie - таба, видео

Печатать
Просмотров: 95
-------------------------------------------------------------------------------
                             KIM TASTIE - Free Throw
-------------------------------------------------------------------------------
Tabbed by: mkunz16
E-mail: mkunz16@jcu.edu

Tuning: Standard

Tabbed this guy by ear, so feel free to send any corrections!



INTRO/VERSE
                                       x2                                       x2
e|-------------------------------------|--|--------------------------------------|--|
B|-------------------------------------|  |--------------------------------------|  |
G|-------------------------------------| o|--------------------------------------| o|
D|---9---11---11---8---7h8p7-----------| o|---9---11---11---8---7h8p7------------| o|
A|---------------------------8-8h11p8--|  |---------------------------8-8h11p8---|  |
E|-7---7----7----7---------------------|--|-0---0----0----0----------------------|--|

CHORUS
                                                                                x2
e|-------------------------------------------------------------------------------|--|
B|-------------------------------------------------------------------------------|  |
G|-------------------------------------------------------------------------------| o|
D|-666666-x-4--4444444---666666-x-4--4444-999------------------------------------| o|
A|-666666-x-2--2222222---666666-x-2--2222-777------------------------------------|  |
E|-444444-x--------------444444-x------------------------------------------------|--|

BRIDGE
                                                                                x4
e|-------------------------------------------------------------------------------|--|
B|-------------------------------------------------------------------------------|  |
G|-------------------------------------------------------------------------------| o|
D|-------------------------------------------------------------------------------| o|
A|-6-(STRUM)--99--2-(STRUM)------------------------------------------------------|  |
E|-4----------77--0--------------------------------------------------------------|--|
   *          **  *

______________

SONG ORDER
______________

INTRO/VERSE *2
CHORUS *2
INTRO/VERSE *2
CHORUS *2
BRIDGE
CHORUS *2


************************************

| /   slide up
| \   slide down
| h   hammer-on
| p   pull-off
| ~   vibrato
| +   harmonic
| x   Mute note
| b   Bend
| pb  Pre-bend
| br  Bend release
| pbr Pre-bend release
| brb Bend release bend
| *   Palm Mute

|--|
|  |
| o|
| o| <---- INDICATES REPEAT
|  |
|--|

************************************
Добавлено: 21.08.2015
Другие материалы по этой песне:
  • Аккорды и текст

Страница создана 21.08.2015
http://primanota.ru/free-throw/kim-tastie-chords.htm
Привет, Гость.
Предлагаем пройти революционный курс по гитаре.
Подарок от PrimaNota.Ru, забирай!