PrimaNota.ru - самый крупный в мире бесплатный архив песенных текстов, аккордов, табулатур и нот


The Free Design - Dont Turn Away - бас-таба, видео

Регистрация Запомнить меня
Войти через:  Facebook Google Twitter Vk Yandex Mail.ru

The Free Design - Dont Turn Away - бас-таба, видео

Печатать
Просмотров: 37
Tabbed by: 6METAL6BASSIST6
E-mail: petergriffinav@gmail.com

Tuning: EADG

0:05

G|----------------|
D|----------------|
A|------2-----3---|
E|3---------------|

G|----------------------------------------------------------------|
D|----------------------------------------------------------------|
A|5---------------------------5---5---------------------2-----3---|
E|------------------------------------------------3---------------|

0:12

G|----------------------------------------------------------------|
D|----------------------------------------------------------------| x3
A|5---------------------------5---5---------------------------5---|
E|----------------------------------------------------------------|

0:27

G|----------------------------------------------------------------|
D|----------------------------------------------------------------|
A|----------------------------------------------------------------|
E|3---------------3-----------3---3-------------------3-------3---|

G|----------------------------------------------------------------|
D|----------------------------------------------------------------|
A|----------------------------------------------------------------|
E|3---------------3-----------3---3---------------------------3---|

G|----------------------------------------------------------------|
D|----------------------------------------------------------------|
A|3---------------3-----------3-----------------------------------|
E|--------------------------------3-------------------3-------3---|

G|----------------------------------------------------------------|
D|----------------------------------------------------------------|
A|3---------------------------3-----------------------------------|
E|--------------------------------3-------------------3-------3---|

G|----------------------------------------------------------------|
D|----------------------------------------------------------------|
A|3---------------3-----------3-----------------------------------|
E|--------------------------------3---------------------------3---|

G|----------------------------------------------------------------|
D|----------------------------------------------------------------|
A|3-------------------3-------3-----------------------------------|
E|--------------------------------3-------------------3-------3---|

0:55

G|----------------------------------------------------------------|
D|----------------------------------------------------------------|
A|3-----------3---3-----------3---2-----------2---2-----------2---|
E|----------------------------------------------------------------|

G|----------------------------------------------------------------|
D|----------------------------------------------------------------|
A|0-----------0---0-----------0---2-----------2-------2-------2---|
E|----------------------------------------------------------------|

G|----------------------------------------------------------------|
D|----------------------------------------------------------------|
A|3-----------3---3-----------3---2-----------2---2-----------2---|
E|----------------------------------------------------------------|

G|----------------------------------------------------------------|
D|----------------------------------------------------------------|
A|0---------------------------0---0---------------------------0---|
E|----------------------------------------------------------------|

G|--------------------------------|
D|--------------------------------|
A|0---------------------------5---|
E|--------------------------------|

1:16

G|----------------------------------------------------------------|
D|----------------------------------------------------------------|
A|----------------------------------------------------------------|
E|3---------------3-----------3---3---------------------------3---|

G|----------------------------------------------------------------|
D|----------------------------------------------------------------|
A|------------------------------------------------------2-----3---|
E|3-------------------3-------3---3---------------3---------------|

1:27

G|----------------------------------------------------------------|
D|----------------------------------------------------------------| x3
A|5---------------------------5---5---------------------------5---|
E|----------------------------------------------------------------|

G|--------------------------------|
D|--------------------------------|
A|5---------------------------5---|
E|--------------------------------|

1:45

G|----------------------------------------------------------------|
D|------------------------------------------------------------5---|
A|6-----------6---6-----------5---3-----------3---3---------------|
E|----------------------------------------------------------------|

G|----------------------------------------------------------------|
D|----------------------------------------------------------------|
A|3-----------3---3-----------3---1-----------1---1-----------1---|
E|----------------------------------------------------------------|

G|----------------------------------------------------------------|
D|1-----------1-------1-------1-----------------------------------|
A|--------------------------------0---------------------------0---|
E|----------------------------------------------------------------|

G|----------------------------------------------------------------|
D|----------------------------------------------------------------|
A|0---------------------------0---0---------------------------0---|
E|----------------------------------------------------------------|

G|--------------------------------|
D|--------------------------------|
A|0---------------------------5---|
E|--------------------------------|

2:06

G|----------------------------------------------------------------|
D|----------------------------------------------------------------|
A|----------------------------------------------------------------|
E|3-----------3---3-----------3---3-------------------3-------3---|

G|----------------------------------------------------------------|
D|----------------------------------------------------------------|
A|3---------------3-----------3-----------------------------------|
E|--------------------------------3-------------------3-------3---|

G|----------------------------------------------------------------|
D|----------------------------------------------------------------|
A|3---------------------------3-----------------------------------|
E|--------------------------------3-------------------3-------3---|

G|----------------------------------------------------------------|
D|----------------------------------------------------------------|
A|3---------------3-----------3-----------------------------------|
E|--------------------------------3---------------------------3---|

G|----------------------------------------------------------------|
D|----------------------------------------------------------------|
A|3-------------------3-------3-----------------------------------|
E|--------------------------------3-----------3-------3-------3---|

2:30

G|----------------------------------------------------------------|
D|----------------------------------------------------------------|
A|3-----------3---3-----------3---2-----------2---2-----------2---|
E|----------------------------------------------------------------|

G|----------------------------------------------------------------|
D|----------------------------------------------------------------|
A|0-----------0---0-----------0---2-----------2-------2-------2---|
E|----------------------------------------------------------------|

G|----------------------------------------------------------------|
D|----------------------------------------------------------------|
A|3-----------3---3-----------3---2-----------2---2-----------2---|
E|----------------------------------------------------------------|

G|----------------------------------------------------------------|
D|----------------------------------------------------------------|
A|0---------------------------0---0---------------------------0---|
E|----------------------------------------------------------------|

G|--------------------------------|
D|--------------------------------|
A|0---------------------------5---|
E|--------------------------------|

2:52

G|----------------------------------------------------------------|
D|----------------------------------------------------------------|
A|------------------------------------------------------2-----3---|
E|3---------------3-----------3---3---------------3---------------|

2:58

G|----------------------------------------------------------------|
D|----------------------------------------------------------------| x3
A|5---------------------------5---5---------------------------5---|
E|----------------------------------------------------------------|

G|------------------------------------------------|
D|------------------------------------------------|
A|5---------------------------5---5-------5-------|
E|------------------------------------------------|

3:16

G|----------------------------------------------------------------|
D|----------------------------------------------------------------|
A|6-----------6---6-----------5---3-----------3---3-----------3---|
E|----------------------------------------------------------------|

G|----------------------------------------------------------------|
D|----------------------------------------------------------------|
A|3-----------3---3-----------3---1-----------1---1---------------|
E|----------------------------------------------------------------|

G|----------------------------------------------------------------|
D|1-----------1-------1-------1-----------------------------------|
A|--------------------------------0---------------------------0---|
E|----------------------------------------------------------------|

G|----------------------------------------------------------------|
D|----------------------------------------------------------------|
A|0---------------------------0---0---------------------------0---|
E|----------------------------------------------------------------|

G|----------------------------------------------------------------|
D|----------------------------------------------------------------|
A|0---------------------------------------------------------------|
E|----------------------------------------------------------------|

G|------------------------------------|
D|------------------------------------|
A|------------5-------------------5---|
E|------------------------------------|

G|----------------------------------------------------------------|
D|----------------------------------------------------------------|
A|----------------------------------------------------------------|
E|3---------------------------3---3---------------------------3---|

G|----------------------------------------------------------------|
D|----------------------------------------------------------------|
A|----------------------------------------------------------------|
E|3-------------------------------3-------------------------------|
Добавлено: 26.06.2016
Вам также может быть интересно:
Другие материалы по этой песне:
  • Аккорды и текст

Страница создана 26.06.2016
http://primanota.ru/free-design/dont-turn-away-chords.htm
Привет, Гость.
Предлагаем пройти революционный курс по гитаре.
Подарок от PrimaNota.Ru, забирай!