PrimaNota.ru - самый крупный в мире бесплатный архив песенных текстов, аккордов, табулатур и нот


Шопен Фредерик - Waltz In A Minor - таба, видео

Регистрация Запомнить меня
Войти через:  Facebook Google Twitter Vk Yandex Mail.ru

Шопен Фредерик - Waltz In A Minor - таба, видео

Печатать
Просмотров: 734
WALTZ IN A MINOR: COMPOSED BY FREDERICK CHOPIN (tabbed by HomeBrew)

tabbed from a classical piano book

3/4 time: allegretto

e]--------------0-1-------5-3-1-0h1-0---0-------------0-1-------5-3------
b]------0-1-1-3-----0-1-3-------------4-------0-1-1-3-----0-1-3-----0-1--
g]----2-------------------------------------2----------------------------
d]--2--------------------------------------------------------------------
a]-----------------------------------------------------------------------
e]-----------------------------------------------------------------------

e]--------------0-1-------5-3-1-0h1-0---0-------0-0-1-3-5-3-2-3-10-1-0---
b]------0-1-1-3-----0-1-3-------------4-----1-3--------------------------
g]----2------------------------------------------------------------------
d]--2--------------------------------------------------------------------
a]-----------------------------------------------------------------------
e]-----------------------------------------------------------------------

e]--|--0-2-4-5-7-8-7h8p7-5-0-7-5-5h7p5-4-0-1-0-0h1-0-----------
b]--|:-----------------------------------------------1---0-----
g]--|--------------------------------------------------2---2---
d]--|:---------------------------------------------------------
a]--|----------------------------------------------------------
e]--|----------------------------------------------------------

e]--------0-4-7-0-4-7-8-7h8p7-5-0-7-5-5h7p5-4-0-12-12-5----|
b]------0-------------------------------------------------:|
g]----1----------------------------------------------------|
d]--2------------------------------------------------------|
a]--------------------------------------------------------:|
e]---------------------------------------------------------|

e]--|------------0-1-------5-3-1-0h1-0---0------0-0-1-3-5---0-2-2-4-5-7--
b]--|:---0-1-1-3-----0-1-3-------------4----1-3-----------4--------------
g]--|--2-----------------------------------------------------------------
d]--|--------------------------------------------------------------------
a]--|:-------------------------------------------------------------------
e]--|--------------------------------------------------------------------


e]--7-9-10-14-12-10-9p7h9-4h5-2-0h2-0-----2p0-0h2-0-----2p0--
b]------------------------------------3-------------2--------
g]--------------------------------------1-------------2------
d]-----------------------------------------------------------
a]-----------------------------------------------------------
e]-----------------------------------------------------------

e]--7-9-10-14-12-10-9p7h9-4h5-2-0h2-0-----0---------|
b]------------------------------------3------------:|
g]--------------------------------------1---1-2-----|
d]----------------------------------------------2---|
a]-------------------------------------------------:|
e]--------------------------------------------------|

e]------------0-1-------5-3-1-0h1-0---0------------0-1-------5-3------
b]----0-1-1-3-----0-1-3-------------4------0-1-1-3-----0-1-3-----0-1--
g]--2------------------------------------2----------------------------
d]--------------------------------------------------------------------
a]--------------------------------------------------------------------
e]--------------------------------------------------------------------

e]--------------0-1--0---0-7-----8-7-5-3-1-0-------0h1-0---0-3-------||
b]------0-1-1-3--------4-----3-1-------------3p2h3-------3-----------||
g]----2--------------------------------------------------------1-2---||
d]--2----------------------------------------------------------------||
a]-------------------------------------------------------------------||
e]-------------------------------------------------------------------||

questions, comments, criticism: email> homebrewguitar@hotmail.com







Image by FlamingText.com

Image by FlamingText.com


________________________________________________________________________________
     
Добавлено: 17.07.2013
Вам также может быть интересно:
Другие материалы по этой песне:
  • Аккорды и текст

Страница создана 17.07.2013
http://primanota.ru/frederic-chopin/waltz-in-a-minor-chords.htm
Привет, Гость.
Предлагаем пройти революционный курс по гитаре.
Подарок от PrimaNota.Ru, забирай!