PrimaNota.ru - самый крупный в мире бесплатный архив песенных текстов, аккордов, табулатур и нот


Шопен Фредерик - Op 68 No 2 - Mazurka In Am - таба, видео

Регистрация Запомнить меня
Войти через:  Facebook Google Twitter Vk Yandex Mail.ru

Шопен Фредерик - Op 68 No 2 - Mazurka In Am - таба, видео

Печатать
Просмотров: 267
Frederic Chopin

Mazurka No 2, Opus 68

Tablature: Grzegorz Konieczny

tuning E A D G B E

Notes:
   p - pulloff
   h - hammeron
   s - slide
   XtrY - XhYpXhYp...
   ^
   | - arpeggio


Lento (slowly)
E-||--------|---0-0--------|-0-0-----|------------|-------------|
B-||------1-|-------1-4tr5-|-------1-|-0-0--------|-----------1-|
G-||----2---|--------------|-----2---|------------|-2---2---2---|
D-||--2-----|-2-----2------|-----2-2-|-----4-6tr7-|---2-2-2-2---|
A-||--------|---0----------|-0-------|-0---5------|-0-----------|
E-||--------|--------------|---------|-----0-0----|-------------|

                                          ^
                                       V..|..
E-|-0-0--------|-0-0-----|------------|---5---------|
B-|-----1-4tr5-|-------1-|-0-0--------|---5-------1-|
G-|------------|-----2---|------------|---5-5---2---|
D-|-----2------|-----2-2-|-----4-6tr7-|-7-7---2-----|
A-|-0----------|-0-------|-0---5------|---7-7-------|
E-|------------|---------|-----0-0----|---5---------|


E-|---0-0--------|-0-0-----|------------|-------------|
B-|-------1-4tr5-|-------1-|-0-0--------|-----------1-|
G-|--------------|-----2---|------------|-2---2---2---|
D-|-2-----2------|-----2-2-|-----4-6tr7-|---2-2-2-2---|
A-|---0----------|-0-------|-0---5------|-0-----------|
E-|--------------|---------|-----0-0----|-------------|

                                          ^
                                        V.|.
E-|-0-0--------|-0-0-----|------------|---5-------0-||
B-|-----1-4tr5-|-------1-|-0-0--------|---5-----1---||
G-|------------|-----2---|------------|---5---------||
D-|-----2------|-----2-2-|-----4-6tr7-|-7-----4-----||
A-|-0----------|-0-------|-0---5------|-------------||
E-|------------|---------|-----0-0----|-------------||


E-||--3-3-0-2tr3-|-3-3-0-2tr3-|-3-3-----|-----0-0-----|
B-||-------------|------------|-----1-3-|-1h3------3--|
G-||@-----0-0----|-----0-0----|-----0-0-|-------0--1--|
D-||@------------|------------|---------|----------2--|
A-||--3----------|-3----------|-3-------|-----3-------|
E-||-------------|------------|---------|-------------|


E-|---0-0--------|-0-0-----|------------|-------------|
B-|-------1-4tr5-|-------1-|-0-0--------|-----------1-|
G-|--------------|-----2---|------------|-2---2---2---|
D-|-2-----2------|-----2-2-|-----4-6tr7-|---2-2-2-2---|
A-|---0----------|-0-------|-0---5------|-0-----------|
E-|--------------|---------|-----0-0----|-------------|

                                       ___^__________  ___^__________
                                      |1  |          ||2  |          |
E-|-0-0--------|-0-0-----|------------|---5-------0--||---5----------||
B-|-----1-4tr5-|-------1-|-0-0--------|---5-----1----||---5----------||
G-|------------|-----2---|------------|---5-5-------@||---5-5--------||
D-|-----2------|-----2-2-|-----4-6tr7-|-7-7---4-----@||-7-7----2-2-2-||
A-|-0----------|-0-------|-0---5------|---7-7--------||---7-7--------||
E-|------------|---------|-----0-0----|---5----------||---5----------||


                               II             II
E-||-----------|---------|-0---2--0-|-0h2-0---2--0-|
B-||---2-2-----|-2-2-----|-2-1-2--2-|-1---2-1-2--2-|
G-||@--------2-|-------2-|----------|--------------|
D-||@--2---2---|-2---2---|-2-1-4--2-|-----2-1-4--2-|
A-||---0---0-0-|-0---0-0-|-0--------|-----0--------|
E-||-----------|---------|----------|--------------|


                        II I   IV....II.....I  IV II
E-|---------|---------|----------------|--------------||
B-|-2-2-----|-2-2-----|-2--1-1s4-4---2-|-2--1--4--2---||
G-|-------2-|-------2-|----1-----------|----1--------@||
D-|-2---2---|-2---2---|-2--1-1s4-4---2-|-2--1--4--2--@||
A-|-0---0-0-|-0---0-0-|------------4---|----------4---||
E-|---------|---------|-4--------4-----|-4-----4------||

    II..            
E-|--------0-|---------|---------|---------|
B-|-2--2-0---|-2-2-----|-0-0-0-0-|-2-2-----|
G-|-4----1-1-|-2-----2-|---------|-2-----2-|
D-|-4----2-2-|-2---2---|-4---3-2-|-----2---|
A-|-2--------|-0---0-0-|-0---5-5-|-0---0-0-|
E-|----------|---------|---------|---------|


E-|--------0-|---------|---------|---------||
B-|-3--3-0---|-2-2-----|-0-0-0-0-|-2-2-----||
G-|-2--------|-2-----2-|---------|-2-----2-||
D-|-4----3-2-|-----2---|-4---3-2-|-----2---||
A-|-0----0-0-|-0---0-0-|-0---5-5-|-0---0-0-||
E-|----------|---------|---------|---------||


E-||---0-0--------|-0-0-----|------------|-------------|
B-||-------1-4tr5-|-------1-|-0-0--------|-----------1-|
G-||--------------|-----2---|------------|-2---2---2---|
D-||-2-----2------|-----2-2-|-----4-6tr7-|---2-2-2-2---|
A-||---0----------|-0-------|-0---5------|-0-----------|
E-||--------------|---------|-----0-0----|-------------|

                                          ^
                                        V.|.
E-|-0-0--------|-0-0-----|------------|---5-------0-|
B-|-----1-4tr5-|-------1-|-0-0--------|---5-----1---|
G-|------------|-----2---|------------|---5---------|
D-|-----2------|-----2-2-|-----4-6tr7-|-7-----4-----|
A-|-0----------|-0-------|-0---5------|-------------|
E-|------------|---------|-----0-0----|-------------|


E-|-3-3-0-2tr3-|-3-3-0-2tr3-|-3-3-----|-----0-0-----|
B-|------------|------------|-----1-3-|-1h3------3--|
G-|-----0-0----|-----0-0----|-----0-0-|-------0--1--|
D-|------------|------------|---------|----------2--|
A-|-3----------|-3----------|-3-------|-----3-------|
E-|------------|------------|---------|-------------|


E-|---0-0--------|-0-0-----|------------|-------------|
B-|-------1-4tr5-|-------1-|-0-0--------|-----------1-|
G-|--------------|-----2---|------------|-2---2---2---|
D-|-2-----2------|-----2-2-|-----4-6tr7-|---2-2-2-2---|
A-|---0----------|-0-------|-0---5------|-0-----------|
E-|--------------|---------|-----0-0----|-------------|
                      
                                          ^
                                        V.|....
E-|-0-0--------|-0-0-----|------------|---5-----||
B-|-----1-4tr5-|-------1-|-0-0--------|---5-----||
G-|------------|-----2---|------------|---5--5--||
D-|-----2------|-----2-2-|-----4-6tr7-|-7-7-----||
A-|-0----------|-0-------|-0---5------|---7--7--||
E-|------------|---------|-----0-0----|---5-----||

Добавлено: 20.05.2012
Другие материалы по этой песне:
  • Аккорды и текст

Страница создана 20.05.2012
http://primanota.ru/frederic-chopin/op-68-no-2-mazurka-in-am-chords.htm
Привет, Гость.
Предлагаем пройти революционный курс по гитаре.
Подарок от PrimaNota.Ru, забирай!