PrimaNota.ru - самый крупный в мире бесплатный архив песенных текстов, аккордов, табулатур и нот


Шопен Фредерик - Fantasie Impromptu Op 66 - таба, видео

Регистрация Запомнить меня
Войти через:  Facebook Google Twitter Vk Yandex Mail.ru

Шопен Фредерик - Fantasie Impromptu Op 66 - таба, видео

Печатать
Просмотров: 359
Fantasie Impromptu, Op 66 in C#m - Theme from Moderata cantabile in Db
Chopin (1810-1849)



Time signature - 4/4
Tuning - E A D G B E


|----------------------------|-----------------------------|
|----------------------------|-----------------1-------3---|
|--0-------------------------|---2-----0-------------------|
|-----------------0----------|-----------------------------|
|----------2-------------2---|-----------------------------|
|--3-------------------------|---3-------------------------|

|--0------------------------|--3----------------------------|
|---------------------------|-------------------------1-----|
|-----------------0---------|-----------------0-------------|
|----------2------------2---|----------2--------------------|
|--3------------------------|--3----------------------------|
|---------------------------|-------------------------------|

|--1--------------0---------------|-------------------0--------------|
|---------------------------------|--3--------------------------1----|
|------------0---------------0----|-----------0-----------------0----|
|--0------------------------------|----------------------------------|
|-----------------3---------------|--2----------------0--------------|
|---------------------------------|----------------------------------|

|---------------------------------|----------------------------------|
|---------------------------------|----------------------------------|
|--0------------------------------|--2-------------------------------|
|--------------------0------------|-------------------3--------------|
|-----------2-----------------2---|---------3------------------3-----|
|--3------------------------------|--1-------------------------------|

|-----------------------------------|-------------------------0-----|
|-----------------------------------|------------------3------------|
|-----------------------------------|-3---------2-------------------|
|--------------------2--------------|-------------------------------|
|--0--------4--------------4--------|-0-----------------------------|
|-----------------------------------|-------------------------------|

|--1-----------0--------------|---------------------0---------------|
|-----------------------------|--3----------------------------------|
|---------2--------------2----|--------------2----------------------|
|--0-----------2--------------|--3--------------------------3-------|
|-----------------------------|-------------------------------------|
|-----------------------------|---------------------3---------------|

|-----------------------------|--0----------------------|
|--1-------------0-1-3-1------|-------------1-----3-----|
|-----------------------------|--------2----------------|
|---------2-------------------|--0----------------------|
|--3--------------------------|-------------------------|
|-----------------------------|-------------------------|

|-----------------------|-----------------------|
|--3--------------------|-----------------------|
|-------------------0---|-----------------------|
|--------------0--------|--------------3--------|
|--------2--------------|--------2---------2----|
|--3--------------------|--3--------------------|

|---------------------------|---------------------------|
|---------------------------|--------------1--------3---|
|--0------------------------|--2-----0------------------|
|----------------0----------|---------------------------|
|----------2------------2---|---------------------------|
|--3------------------------|--3------------------------|

|---0----------------------|--3-------------------------|
|--------------------------|-------------------------1--|
|----------------0---------|-----------------0----------|
|---------2-------------2--|---------2------------------|
|---3----------------------|--3-------------------------|
|--------------------------|----------------------------|

|--1------------0---------|-------------0-----------|
|-------------------------|--3----------------------|
|---------0------------0--|--------0------------1---|
|--0----------------------|---------------------0---|
|---------------3---------|--2----------0-----------|
|-------------------------|-------------------------|

|-----------------------|--------------------------------|
|-----------------------|--------------------------------|
|--0--------------------|--2-----------------------------|
|--------------0--------|-----------------3--------------|
|--------2----------2---|----------3-------------3-------|
|--3--------------------|--1-----------------------------|

|-----------------------|-------------------0--|
|-----------------------|--------------3-------|
|-----------------------|--3------2------------|
|-------------2---------|----------------------|
|--0----4---------4-----|--0-------------------|
|-----------------------|----------------------|

|---1-----------0-----------|---------------------0------------|
|---------------------------|----3-----------------------------|
|---------2-------------2---|--------------2-------------0-----|
|---0-----------2-----------|----3-----------------------3-----|
|---------------------------|----------------------------------|
|---------------------------|----------------------3-----------|

|-------------------------------|--0------------------------|
|--1----------------------------|-----------------------3---|
|----------------------0-2-0----|-----------------0---------|
|----------2-------4------------|-----------3---------------|
|--3----------------------------|--3------------------------|
|-------------------------------|---------------------------|

|---------------------------|--------------------||
|---3-----------------------|----------1---------||
|------------------0--------|----------0---------||
|------------3-----------3--|----------2---------||
|---3-----------------------|----------3---------||
|---------------------------|--------------------||


Добавлено: 23.02.2012
Другие материалы по этой песне:
  • Аккорды и текст

Страница создана 23.02.2012
http://primanota.ru/frederic-chopin/fantasie-impromptu-op-66-chords.htm
Привет, Гость.
Предлагаем пройти революционный курс по гитаре.
Подарок от PrimaNota.Ru, забирай!