PrimaNota.ru - самый крупный в мире бесплатный архив песенных текстов, аккордов, табулатур и нот


Freddie King - Wash Out - таба, бас-таба, видео

Регистрация Запомнить меня
Войти через:  Facebook Google Twitter Vk Yandex Mail.ru

Freddie King - Wash Out - таба, бас-таба, видео

Печатать
Просмотров: 48
WASH OUT

As recorded by Freddie King
(From the 1961 Album LET'S HIDE AWAY AND DANCE AWAY WITH FREDDY KING)

Words and Music by Freddie King

Transcribed by Slowhand


Gtr I (E A D G B E) - 'Freddie King - Electric Guitar w/ light distortion'
Gtr II (E A D G B E) - 'Fred Jordan - Electric Guitar '


  Q=120(8=s8)
                  G5
 4/4
  Gtr I
          |-3-|                   |--3--|                   |--3--|
  H    Q  E E E   Q   e E   +Q    E E   E   E E e E   +Q    E E   E
|---------------|-------------------------|--------------------------|
|---------------|-----5-3---(3)-----------|-----5-3---(3)------------|
|---------------|-----5-3b4-(3)-----------|-----5-3b4-(3)------------|
|---------------|-------------------------|--------------------------|
|---------3-4-5-|-----------------3-4---5-|-----------------3-4---5--|
|---------------|-3-----------------------|-3-3----------------------|
|
| Gtr II
| W               E E E E    E  E E   E     E E E E    E  E E   E
|---------------|-------------------------|--------------------------|
|---------------|-------------------------|--------------------------|
|---------------|-------------------------|--------------------------|
|---------------|-------------------------|--------------------------|
|---------------|-5-5-7-5----5--5-7---5---|-5-5-7-5----5--5-7---5----|
|---------------|-3-3-3-3----3--3-3---3---|-3-3-3-3----3--3-3---3----|


                                                    C5
                  |--3--|                   |3|                     |--3---|
  E E e E   +Q    E E   E   E E e E   +Q    E Q     a E  E  e E Q   E  E   E
|-------------------------|-----------------------|---------------------------|
|-----5-3---(3)-----------|-----5-3---(3)---------|---8----10-----------------|
|-----5-3b4-(3)-----------|-----5-3b4-(3)-----5---|-8h9----10-8h9-------------|
|-------------------------|-----------------------|-----10-----------------8--|
|-----------------3-4---5-|-----------------------|-------------------10------|
|-3-3---------------------|-3-3-------------------|---------------------------|
|
| E E E E    E  E E   E     E E E E    E  E E   E     E  E  E E E E E    E
|-------------------------|-----------------------|---------------------------|
|-------------------------|-----------------------|---------------------------|
|-------------------------|-----------------------|---------------------------|
|-------------------------|-----------------------|---5--5--7-5-5-5-7----5----|
|-5-5-7-5----5--5-7---5---|-5-5-7-5----5--5-7---5-|---3--3--3-3-3-3-3----3----|
|-3-3-3-3----3--3-3---3---|-3-3-3-3----3--3-3---3-|---------------------------|


                |-3-|     |--3--|
   E  E  e a E +E  +Q     E E   E
|---------------------------------|
|-------10---8-(8)----------------|
|-------10-8h9-(9)-(9)\-----------|
|-10-10---------------------------|
|-------------------------3-4---5-|
|---------------------------------|
|
|  E  E  E   E  E       E E   E
|---------------------------------|
|---------------------------------|
|---------------------------------|
|--5--5--7---5--5-------5-7---5---|
|--3--3--3---3--3-------3-3---3---|
|---------------------------------|


  G5
                  |--3--|                     |---3---|
  E E e E   +Q    E E   E   E  E  e E   +Q    E  E    E
|-------------------------|------------------------------|
|-----5-3---(3)-----------|-------5-3---(3)--------------|
|-----5-3b4-(3)-----------|-------5-3b4-(3)--------------|
|-------------------------|---------------------12---12--|
|-----------------3-4---5-|------------------------------|
|-3-3---------------------|-3-(3)------------------------|
|
| E E E E    E  E E   E     E  E  E E    E  E E    E
|-------------------------|------------------------------|
|-------------------------|------------------------------|
|-------------------------|------------------------------|
|-------------------------|------------------------------|
|-5-5-7-5----5--5-7---5---|-5--5--7-5----5--5-7----5-----|
|-3-3-3-3----3--3-3---3---|-3--3--3-3----3--3-3----3-----|


  D5
                            |---3---|
   a  E  E  E  a  E  +E   E E  E    E
|-------------------------------------|
|----10----12-------------------------|
|-10h11----12-10h11-(11)--------------|
|-------12-------10-(10)-12---10---10-|
|-------------------------------------|
|-------------------------------------|
|
|     E  E  E     E   E   E E    E
|-------------------------------------|
|-------------------------------------|
|-------------------------------------|
|-----7--7--9-----7---7---7-9----7----|
|-----5--5--5-----5---5---5-5----5----|
|-------------------------------------|


    C5                          G5
                      |--3--|
  a E  E  E a E +Q    E E   E   E E e E   +Q    E E
|-----------------------------|----------------------|
|---8----10-------------------|-----5-3---(3)--------|
|-8h9----10-8h9-(9)-----------|-----5-3b4-(3)--------|
|-----10------8-(8)-----------|-------------------3--|
|---------------------3-4---5-|-----------------5----|
|-----------------------------|-3-3------------------|
|
|   E  E  E   E  E  E E   E     E E E E    E  E E E
|-----------------------------|----------------------|
|-----------------------------|----------------------|
|-----------------------------|----------------------|
|---5--5--7---5--5--5-7---5---|----------------------|
|---3--3--3---3--3--3-3---3---|-5-5-7-5----5--5-7-5--|
|-----------------------------|-3-3-3-3----3--3-3-3--|


                          $
  G5  D5                     G5
                  |--3--|                    |--3--|
  E E e E   +Q    E E   E    E E e E   +Q    E E   E
|-------------------------||-------------------------|
|-----5-3---(3)-----------||-----5-3---(3)-----------|
|-----5-3b4-(3)-----------||-----5-3b4-(3)-----------|
|-5-5---------------------||-------------------------|
|-----------------3-4---5-||-----------------3-4---5-|
|-------------------------||-3-3---------------------|
|
| E E E E    E  E E   E      E E E E    E  E E   E
|-------------------------||-------------------------|
|-------------------------||-------------------------|
|-------------------------||-------------------------|
|-----7-7----7--7-7---7---||-------------------------|
|-5-5-5-5----5--5-5---5---||-5-5-7-5----5--5-7---5---|
|-3-3---------------------||-3-3-3-3----3--3-3---3---|


                  |--3--|                   |--3--|
  E E e E   +Q    E E   E   E E e E   +Q    E E   E
|-------------------------|--------------------------|
|-----5-3---(3)-----------|-----5-3---(3)------------|
|-----5-3b4-(3)-----------|-----5-3b4-(3)------------|
|-------------------------|--------------------------|
|-----------------3-4---5-|-----------------3-4---5--|
|-3-3---------------------|-3-3----------------------|
|
| E E E E    E  E E   E     E E E E    E  E E   E
|-------------------------|--------------------------|
|-------------------------|--------------------------|
|-------------------------|--------------------------|
|-------------------------|--------------------------|
|-5-5-7-5----5--5-7---5---|-5-5-7-5----5--5-7---5----|
|-3-3-3-3----3--3-3---3---|-3-3-3-3----3--3-3---3----|


                             C5
                  |--3--|                     |--3---|
  E E e E   +Q    E E   E    E E  e a E +Q    E E    E
|--------------------------|---------------------------|
|-----5-3---(3)------------|-----10---8-(8)------------|
|-----5-3b4-(3)------------|-----10-8h9-(9)------------|
|--------------------------|---------------------------|
|-----------------3-4---5/-|--------------------8h==10-|
|-3-3----------------------|-8-8-----------------------|
|
| E E E E    E  E E   E      E E  E   E  E  E E   E
|--------------------------|---------------------------|
|--------------------------|---------------------------|
|--------------------------|---------------------------|
|--------------------------|-5-5--7---5--5--5-7---5----|
|-5-5-7-5----5--5-7---5----|-3-3--3---3--3--3-3---3----|
|-3-3-3-3----3--3-3---3----|---------------------------|


                              G5
                    |--3--|                   |--3--|
   Q    e a E +Q    E E   E   E E e E   +Q    E E   E
|---------------------------|---------------------------|
|------10---8-(8)-----------|-----5-3---(3)-------------|
|------10-8h9-(9)-----------|-----5-3b4-(3)-------------|
|-10------------------------|---------------------------|
|-------------------3-4---5-|-----------------3-4---5---|
|---------------------------|-3-3-----------------------|
|
|  E E  E   E  E  E E   E     E E E E    E  E E   E
|---------------------------|---------------------------|
|---------------------------|---------------------------|
|---------------------------|---------------------------|
|--5-5--7---5--5--5-7---5---|---------------------------|
|--3-3--3---3--3--3-3---3---|-5-5-7-5----5--5-7---5-----|
|---------------------------|-3-3-3-3----3--3-3---3-----|


                              D5
                  |---3---|                            |---3---|
  E E e E   +Q    E  E    E    a  E  E  E  a  E  +Q    E  E    E
|---------------------------|------------------------------------|
|-----5-3---(3)-------------|----10----12------------------------|
|-----5-3b4-(3)-------------|-10h11----12-10h11-(11)-------------|
|-------------------12---12-|-------12-------------------10---10-|
|---------------------------|----------------12-(12)-------------|
|-3-3-----------------------|------------------------------------|
|
| E E E E    E  E E    E          E  E  E     E   E  E E    E
|---------------------------|------------------------------------|
|---------------------------|------------------------------------|
|---------------------------|------------------------------------|
|---------------------------|-----7--7--9-----7---7--7-9----7----|
|-5-5-7-5----5--5-7----5----|-----5--5--5-----5---5--5-5----5----|
|-3-3-3-3----3--3-3----3----|------------------------------------|


                                                       To Coda
  C5                                  G5
                            |--3--|                   |--3--|
  a E  E  E a  E  +E   +E   E E   E   E E e E   +Q    E E   E
|-----------------------------------|----------------------------|
|---8----10-------------------------|-----5-3---(3)--------------|
|-8h9----10-8h=9--(9)--(9)\---------|-----5-3b4-(3)--------------|
|-----10----------------------------|----------------------------|
|-------------10-(10)-(10)\-3-4---5-|-----------------3-4---5----|
|-----------------------------------|-3-3------------------------|
|
|   E  E  E    E   E    E   E   E     E E E E    E  E E   E
|-----------------------------------|----------------------------|
|-----------------------------------|----------------------------|
|-----------------------------------|----------------------------|
|---5--5--7----5---5----5---7---5---|----------------------------|
|---3--3--3----3---3----3---3---3---|-5-5-7-5----5--5-7---5------|
|-----------------------------------|-3-3-3-3----3--3-3---3------|


  G5  D5
                    |---3---|
  E E e E +Q        E   E   E
|---------------------------3-||
|-----5-3-(3)-----------3-----||
|-----5-3-(3)b3.5---5b7-------||
|-----------------------------||
|-----------------------------||
|-3-3-------------------------||
|
| E E E E  E      E E     E
|-----------------------------||
|-----------------------------||
|-----------------------------||
|-----7-7--7------7-7-----7---||
|-5-5-5-5--5------5-5-----5---||
|-3-3-------------------------||


  G       C/GG  C/G  G     C/G G   C/G
                     |--3--| |-3-| |--3--|
  E   +E  Q  H       E E   E E E E E   E E   S E.
|------------------|---------3--------------------|
|-6b8-(6)----------|-------3---6-3-----3----------|
|------------------|---5b7---------5b7---5b7-3h5--|
|------------------|------------------------------|
|------------------|------------------------------|
|------------------|------------------------------|
|
| Q       Q  Q  Q    Q       Q     Q         Q
|------------------|------------------------------|
|-3-------5--3--5--|-3-------5-----3---------5----|
|-4-------5--4--5--|-4-------5-----4---------5----|
|-5-------5--5--5--|-5-------5-----5---------5----|
|-5----------5-----|-5-------------5--------------|
|-3-------3--3--3--|-3-------3-----3---------3----|


  G    C/G G   C/G
    ~~
                 |-3-|
  S E. S a S S S E E E    +Q
|--------------3---------------|
|------------3---6-3-6b8==(6)--|
|-3------3h4-------------------|
|---5--------------------------|
|------------------------------|
|------------------------------|
|
| Q    Q         Q         Q
|------------------------------|
|-3----5---------3---------5---|
|-4----5---------4---------5---|
|-5----5---------5---------5---|
|-5--------------5-------------|
|-3----3---------3---------3---|


  G        C/G     G     C/G       C      F/C    C    F/C
   |-3-|            |-3--| |-3-|    |--3--|  |-3-|  |-3-|  |-3-|
  +E   Q   E   E   +E  E E E E E    E   E E  E E E  E E E  E E E
|--------------------------------|--------3----3-6--3-5----3-----|
|-(6)r-6b8-6b8-6b8r(6)-3---------|------3----6----------5----6-3-|
|------------------------5-3---3-|--5b7--------------------------|
|----------------------------5---|-------------------------------|
|--------------------------------|-------------------------------|
|--------------------------------|-------------------------------|
|
|  Q       Q        Q      Q        Q        Q      Q      Q
|--------------------------------|-------------------------------|
|--3-------5--------3------5-----|--8-------10------8-----10-----|
|--4-------5--------4------5-----|--9-------10------9-----10-----|
|--5-------5--------5------5-----|-10-------10-----10-----10-----|
|--5----------------5------------|-10--------------10------------|
|--3-------3--------3------3-----|--8--------8------8------8-----|


  C      F/C        C    F/C
   |--3--|    |3|    |-3-|  |3|
   E   E E    E Q    E E E  E Q
|---------------------------------|
|------3--------------------------|
|--5b7---5b7----5b7--3-5----3-5b7-|
|------------------------5--------|
|---------------------------------|
|---------------------------------|
|
|  Q          Q      Q      Q
|---------------------------------|
|--8---------10------8-----10-----|
|--9---------10------9-----10-----|
|-10---------10-----10-----10-----|
|-10----------------10------------|
|--8----------8------8------8-----|


  G   C/G     G   C/G       G   C/G G       C/G
                            |-3-|
  S S E E     S S E E E E   E E E E E   +E  E E   E
|-------------------------|-------3-5b7r(5)-3-5b7-5b7==|
|-------------------------|---3-5----------------------|
|-5p3---3b3.5-----------3-|-4--------------------------|
|-----5-------5p3---------|----------------------------|
|-----------------5-------|----------------------------|
|-------------------------|----------------------------|
|
| Q     Q         Q   Q     Q     Q      Q    Q
|-------------------------|----------------------------|
|-3-----5---------3---5---|-3-----5------3----5--------|
|-4-----5---------4---5---|-4-----5------4----5--------|
|-5-----5---------5---5---|-5-----5------5----5--------|
|-5---------------5-------|-5------------5-------------|
|-3-----3---------3---3---|-3-----3------3----3--------|


  D    G/D   D    G/D             C      F/C  C    F/C
        |-3--|  |-3-|  |--3---|    |3|    |-3-|  |-3-|  |3|
  +Q   +E  E E  E E E +E  S S E    E Q    E E E  E E E  E Q
|-(5)r=(5)-3-5----3-------------|----6b8--6-3-----------------|
|---------------5---------------|-------------6--3------------|
|-------------------3-(3)-------|------------------6-5--3-5b7-|
|-------------------------5-3---|-----------------------------|
|-------------------------------|-----------------------------|
|-------------------------------|-----------------------------|
|
|  Q    Q       Q      Q           Q      Q      Q      Q
|-------------------------------|-----------------------------|
|-10---12------10-----12--------|--8-----10------8-----10-----|
|-11---12------11-----12--------|--9-----10------9-----10-----|
|-12---12------12-----12--------|-10-----10-----10-----10-----|
|-12-----------12---------------|-10------------10------------|
|-10---10------10-----10--------|--8------8------8------8-----|


  G   C/G G   C/G
          |-3-| |-3-|    |-3--|
  S S E a E E E E E E   +E  E E
|-------------3-------------------|
|-----------3---6-3---------------|
|-5p3---3h4---------5b6r(5)-3-5---|
|-----5---------------------------|
|---------------------------------|
|---------------------------------|
|
| Q       Q     Q        Q
|---------------------------------|
|-3-------5-----3--------5--------|
|-4-------5-----4--------5--------|
|-5-------5-----5--------5--------|
|-5-------------5-----------------|
|-3-------3-----3--------3--------|


  G       C/G G   C/G       G  C/G G  C/G      G   C/G    G       C/G
                            ~      ~
              |-3-|                                |3|             |--3--|
  E     E E E E E E E  E    Q  E E Q  Q        E E E Q    E E     +E   E E
|-----------------3-3----||-----------6b6.5--|-------8b10---8b10==(8)r-8-6--|
|---------------3-----/8-||-8--8-6-8---------|---8--------------------------|
|-3b3.5------------------||------------------|------------------------------|
|-------5-3--------------||------------------|------------------------------|
|-----------5------------||------------------|------------------------------|
|------------------------||------------------|------------------------------|
|
| Q       Q   Q     Q       Q  Q   Q  Q        Q   Q      Q        Q
|------------------------||------------------|------------------------------|
|-3-------5---3-----5----||-3--5---3--5------|-3---5------3--------5--------|
|-4-------5---4-----5----||-4--5---4--5------|-4---5------4--------5--------|
|-5-------5---5-----5----||-5--5---5--5------|-5---5------5--------5--------|
|-5-----------5----------||-5------5---------|-5----------5-----------------|
|-3-------3---3-----3----||-3--3---3--3------|-3---3------3--------3--------|


  G   C/G   G  C/G       G      C/G G     C/G    C     F/C  C     F/C
  |3|                             |--3--|               |-3-|  |3-|
  E Q +E  E Q  E E       +Q   E E S +E. E S E.   a  Q   E E E +E  Q +Q
|---8-(8)--------8b10==|=(8)--8-8-8r(8)-6-8-8--|-6h=8---6---------6-(6)--|
|----------------------|-----------------------|----------8-8-(8)--------|
|----------------------|-----------------------|-------------------------|
|----------------------|-----------------------|-------------------------|
|----------------------|-----------------------|-------------------------|
|----------------------|-----------------------|-------------------------|
|
| Q    Q    Q  Q          Q   Q   Q       Q         Q   Q      Q     Q
|----------------------|-----------------------|-------------------------|
|-3----5----3--5-------|--3---5---3-------5----|----8--10------8----10---|
|-4----5----4--5-------|--4---5---4-------5----|----9--10------9----10---|
|-5----5----5--5-------|--5---5---5-------5----|---10--10-----10----10---|
|-5---------5----------|--5-------5------------|---10---------10---------|
|-3----3----3--3-------|--3---3---3-------3----|----8---8------8-----8---|


  C     F/C  C       F/C
   |-3--|  |3|     |-3-|
  +E  E E  E Q     E E E  E     E
|-(6)---6--8-8b10--6-8----6b6.5-6b6.5==|
|-----8----------------8---------------|
|--------------------------------------|
|--------------------------------------|
|--------------------------------------|
|--------------------------------------|
|
|  Q       Q       Q      Q
|--------------------------------------|
|--8------10-------8-----10------------|
|--9------10-------9-----10------------|
|-10------10------10-----10------------|
|-10--------------10-------------------|
|--8-------8-------8------8------------|


  G      C/G   G   C/G            G     C/G     G   C/G
         ~~~~~~
   |--3--|       |--3--|  |-3-|   |--3--|         |-3-|
  +E   E E +E  E E  E  E  E E E   E   E E E     E E   Q  E  E
|-(6)r--------------------3-----|-------------------/13-13-----|
|------8-8-(8)--------(3)---6-3-|-----3--------------------15--|
|------------------/4-----------|-5b7---5-3b3.5----------------|
|-------------------------------|------------------------------|
|-------------------------------|------------------------------|
|-------------------------------|------------------------------|
|
|  Q        Q    Q        Q       Q       Q       Q      Q
|-------------------------------|------------------------------|
|--3--------5----3--------5-----|-3-------5-------3------5-----|
|--4--------5----4--------5-----|-4-------5-------4------5-----|
|--5--------5----5--------5-----|-5-------5-------5------5-----|
|--5-------------5--------------|-5---------------5------------|
|--3--------3----3--------3-----|-3-------3-------3------3-----|


  D     G/D    D    G/D
                              ~~~~~~~
   |--3--|   |-3--|  |--3--|
   E  E  E   E  E E  E a E E  E +E
|-13----13\----10-8--6-8p6-----------|
|----15--------------------8--8-(8)\-|
|------------------------------------|
|------------------------------------|
|------------------------------------|
|------------------------------------|
|
|  Q         Q       Q        Q
|------------------------------------|
|-10--------12------10-------12------|
|-11--------12------11-------12------|
|-12--------12------12-------12------|
|-12----------------12---------------|
|-10--------10------10-------10------|


  C    F/C  C   F/C               G   C/G G   C/G
   |-3-|  |-3-|  |-3-|  |--3--|   |-3-| |-3-| |-3-|    |-3--|
   E E E  E E E  E E E  E   E E   E E E E E E E E E   +E  E E
|------6--3-5----3--------------|-----------3------------------|
|----3--------5----6-3------3---|---------3---6-3--------------|
|-----------------------5b7---5-|-3---3h4---------5b7r(5)-3-5--|
|-------------------------------|---5--------------------------|
|-------------------------------|------------------------------|
|-------------------------------|------------------------------|
|
|  Q      Q      Q      Q         Q     Q     Q        Q
|-------------------------------|------------------------------|
|--8-----10------8-----10-------|-3-----5-----3--------5-------|
|--9-----10------9-----10-------|-4-----5-----4--------5-------|
|-10-----10-----10-----10-------|-5-----5-----5--------5-------|
|-10------------10--------------|-5-----------5----------------|
|--8------8------8------8-------|-3-----3-----3--------3-------|


            D.S. al Coda &
  G       C/G  G  C/G
                  |-3-|
  E     E E E  Q  E E E
|------------------------||
|------------------------||
|-3b3.5------------------||
|-------5-3--------------||
|-----------5\----3-4-5--||
|------------------------||
|
| Q       Q    Q  Q
|------------------------||
|-3-------5----3--5------||
|-4-------5----4--5------||
|-5-------5----5--5------||
|-5------------5---------||
|-3-------3----3--3------||


  G5  D5                       G5
                    |--3--|                    |--3--|
  E E e E +Q        E E   E    E E e E   +Q    E E   E
|---------------------------||--------------------------|
|-----5-3-(3)b3.5-----------||-----5-3---(3)------------|
|-----5-3-(3)b3.5-----------||-----5-3b4-(3)------------|
|---------------------------||--------------------------|
|-------------------3-4---5-||-----------------3-4---5--|
|-3-3-----------------------||-3-3----------------------|
|
| E E E E  E      E E   E      E E E E    E  E E   E
|---------------------------||--------------------------|
|---------------------------||--------------------------|
|---------------------------||--------------------------|
|-----7-7--7------7-7---7---||--------------------------|
|-5-5-5-5--5------5-5---5---||-5-5-7-5----5--5-7---5----|
|-3-3-----------------------||-3-3-3-3----3--3-3---3----|


                  |--3--|                   |--3--|
  E E e E   +Q    E E   E   E E e E   +Q    E E   E
|-------------------------|-------------------------|
|-----5-3---(3)-----------|-----5-3---(3)-----------|
|-----5-3b4-(3)-----------|-----5-3b4-(3)-----------|
|-------------------------|-------------------------|
|-----------------3-4---5-|-----------------3-4---5-|
|-3-3---------------------|-3-3---------------------|
|
| E E E E    E  E E   E     E E E E    E  E E   E
|-------------------------|-------------------------|
|-------------------------|-------------------------|
|-------------------------|-------------------------|
|-------------------------|-------------------------|
|-5-5-7-5----5--5-7---5---|-5-5-7-5----5--5-7---5---|
|-3-3-3-3----3--3-3---3---|-3-3-3-3----3--3-3---3---|


                    |---3---|
  E E e E +E    +E  E  E    E
|------------------------------|
|-----5-3-(3)---(3)------------|
|-----5-3-(3)b4-(3)------------|
|---------------------10---10--|
|------------------------------|
|-3-3--------------------------|
|
| E E E E  E     E  E    E
|------------------------------|
|------------------------------|
|------------------------------|
|------------------------------|
|-5-5-7-5--5-----5--7----5-----|
|-3-3-3-3--3-----3--3----3-----|


  C5
                        |--3---|
  a E  E  E a  E  +E  E E E    E
|--------------------------------|
|---8----10----------------------|
|-8h9----10-8h=9--(9)------------|
|-----10-------------------------|
|-------------10-(10)---8-9---10-|
|---------------------8----------|
|
|   E  E  E    E   E  E E   E
|--------------------------------|
|--------------------------------|
|--------------------------------|
|---5--5--7----5---5--5-7---5----|
|---3--3--3----3---3--3-3---3----|
|--------------------------------|


                                G5
                      |--3--|                   |--3--|
  E E  E a  E  +E   E E E   E   E E e E   +Q    E E   E
|-----------------------------|-------------------------|
|-----10----------------------|-----5-3---(3)-----------|
|-----10-8h=9--(9)------------|-----5-3b4-(3)-----------|
|-----------------------------|-------------------------|
|----------10-(10)\-3-3-4---5-|-----------------3-4---5-|
|-8-8-------------------------|-3-3---------------------|
|
| E E  E    E   E   E E   E     E E E E    E  E E   E
|-----------------------------|-------------------------|
|-----------------------------|-------------------------|
|-----------------------------|-------------------------|
|-5-5--7----5---5---5-7---5---|-------------------------|
|-3-3--3----3---3---3-3---3---|-5-5-7-5----5--5-7---5---|
|-----------------------------|-3-3-3-3----3--3-3---3---|


                            D5
                  |--3--|                       |---3---|
  E E e E   +Q    E E   E    a  E  E  E  E  E E E  E    E
|-------------------3-----|-------------------------------|
|-----5-3---(3)-----3---3-|----10----12--9s10-------------|
|-----5-3b4-(3)-----------|-10h11----12-10s11-------------|
|-------------------------|-------12----------0---10---10-|
|-------------------------|-------------------------------|
|-3-3---------------------|-------------------------------|
|
| E E E E    E  E E   E         E  E  E  E  E E E    E
|-------------------------|-------------------------------|
|-------------------------|-------------------------------|
|-------------------------|-------------------------------|
|-------------------------|-----7--7--9--7--7-7-9----7----|
|-5-5-7-5----5--5-7---5---|-----5--5--5--5--5-5-5----5----|
|-3-3-3-3----3--3-3---3---|-------------------------------|


  C5
                 |---3---|
  a E  E  E  E   E   E   E E E
|-------------------------------|
|---8----10--------------3-5-3--|
|-8h9----10--8h==9\-------------|
|-----10------------------------|
|-----------10-(10)\------------|
|-------------------------------|
|
|   E  E  E  E   E     E   E E
|-------------------------------|
|-------------------------------|
|-------------------------------|
|---5--5--7--5---5-----5---7-5--|
|---3--3--3--3---3-----3---3-3--|
|-------------------------------|


  G                         AbG7
  E E E E E E     E E   E E E E +H       +W
|-3-------------------|----------------|--------*|
|---6-3---------------|----------------|--------*|
|-------6-5-3b3.5-----|-----3-2-(2)----|-(2)----*|
|-----------------5-3-|-----4-3-(3)----|-(3)----*|
|---------------------|-5-0-3-2-(2)----|-(2)----*|
|---------------------|----------------|--------*|
|
| W                     Q   E E +H       +W
|---------------------|----------------|--------*|
|-3-------------------|----------------|--------*|
|-4-------------------|-----5-4-(4)----|-(4)----*|
|-5-------------------|-----4-3-(3)----|-(3)----*|
|-5-------------------|-----6-5-(5)----|-(5)----*|
|-3-------------------|-----4-3-(3)----|-(3)----*|


Duration Legend
---------------
W - whole; H - half; Q - quarter; E - 8th; S - 16th; T - 32nd; X - 64th; a - acciaccatura
+ - note tied to previous; . - note dotted; .. - note double dotted
Uncapitalized letters represent notes that are staccato (1/2 duration)
Irregular groupings are notated above the duration line
Duration letters will always appear directly above the note/fret number it represents the
duration for.  Duration letters with no fret number below them represent rests.  Multi-
bar rests are notated in the form Wxn, where n is the number of bars to rest for.  Low
melody durations appear below the staff

Tablature Legend
----------------
 h   - hammer-on
 p   - pull-off
 b   - bend
 pb  - pre-bend
 r   - bend release (if no number after the r, then release immediately)
 /\  - slide into or out of (from/to "nowhere")
 s   - legato slide
 S   - shift slide
  - natural harmonic
[n]  - artificial harmonic
n(n) - tapped harmonic
 ~   - vibrato
 tr  - trill
 T   - tap
 TP  - trem. picking
 PM  - palm muting
\n/  - tremolo bar dip; n = amount to dip
 \n  - tremolo bar down
 n/  - tremolo bar up
/n\  - tremolo bar inverted dip
 =   - hold bend; also acts as connecting device for hammers/pulls
 <>  - volume swell (louder/softer)
 x   - on rhythm slash represents muted slash
 o   - on rhythm slash represents single note slash

Misc Legend
-----------
 |  - bar
||  - double bar
||o - repeat start
o|| - repeat end
*|  - double bar (ending)
 :  - bar (freetime)
 $  - Segno
 &  - Coda
Tempo markers -  = BPM(8/16=s8/s16), where s8 = swing 8ths, s16 = swing 16ths
Добавлено: 09.11.2015
Другие материалы по этой песне:

Страница создана 05.11.2013
http://primanota.ru/freddie-king/wash-out-chords.htm
Привет, Гость.
Предлагаем пройти революционный курс по гитаре.
Подарок от PrimaNota.Ru, забирай!