PrimaNota.ru - самый крупный в мире бесплатный архив песенных текстов, аккордов, табулатур и нот


Freddie King - Today I Sing The Blues - бас-таба, видео

Регистрация Запомнить меня
Войти через:  Facebook Google Twitter Vk Yandex Mail.ru

Freddie King - Today I Sing The Blues - бас-таба, видео

Печатать
Просмотров: 37
-------------------------------------------------------------------------------
                TODAY I SING THE BLUES - Freddie King
-------------------------------------------------------------------------------
Tabbed by: dolson128

Tuning: Standard

G|-------------------------|-------------------------|-------------------------|
D|-------------------------|-------------------------|-------------------------|
A|-----------------------2-|-3---3-1---1-0-----------|-------0-----1-----2-----|
E|-------------------------|-------------------3---0-|-1---1-------------------|

G|-------------------------|-------------------------|-------------------------|
D|-------------------------|-------------------------|-------------------------|
A|-3---------------------0-|-3---------------------2-|-3---3-1-----0-----------|
E|-----------0-1-----2-3---|-----1-3-3-3-3-3-3-3-3---|-------------------3---0-|
                                                        There's no doubt about it 
 
G|-------------------------|-------------------------|-------------------------|
D|-------------------------|-------------------------|-------------------------|
A|-------0-----1-----2-----|-3---3-1-----0---------5-|-3---3-1-----0-----------|
E|-1-----------------------|-------------------3-----|-------------------3---2-|
I might as well shout about it. I've got the blues now     I've got 'em bad

G|-------------------------|-------------------------|-------------------------|
D|-------------------------|-3-----------------------|-------------------------|
A|-------0-----3-----5---3-|-----0-6-----5---0-4---2-|-3-----0-----------5---2-|
E|-1---1-------------------|-------------------------|-----0-------3-----------|
    Yes, what an awful feeling  when you don't have
                                     what you thought you had

G|-------------------------|-------------------------|-------------------------|
D|-------------------------|-------------0-----5---4-|-3-----------------------|
A|-3---3-1-----0-----------|-------2-----------------|-----3-------0-----1-----|
E|-----------------0-4---2-|-3---3-------------------|-------1-----------------|
                Yeah, yesterday, yesterday I            But today I've got 'em bad
                                    sang a love song 

G|-------------------------|-------------------------|-------------------------|
D|-------------------------|-------------------------|-------2-----5-----------|
A|-3---3-------------------|-------------------------|-3---3-------------5-3---|
E|-------0-----1-----2-----|-3-----3-----3-3---3-3---|-----------------------3-|
                                              Yes, I didn't know she was leaving

G|-------------------------|-----------------------7-|-5---5-3-----2-----0-----|
D|-------------------------|-------------7-----5-----|-----------------------4-|
A|-------0-----1-----2-----|-3---3-7-----------------|-------------------------|
E|-1---1-------------------|-------------------------|-------------------------|
  I didn't even know that she was gone                                 Yes I think she

G|-------------------------|-------------------------|-----------------------7-|
D|-3---3-1-----0-----------|-------------------------|-------------7-----5-----|
A|-------------------3-----|-------0-----1-----2-----|-3---3-7-----------------|
E|-----------------------0-|-1---1-------------------|-------------------------|
should've told me             Yes but she walked 
          goodbye, people       away while I was gone

G|-5---5-3-----2-----1-----|-0-----------0-----------0-----------0-------5-----|
D|-------------------------|-----------------------------------------7-----5-2-|
A|-------------------------|---------------------------------------------------|
E|-------------------------|---------------------------------------------------|
             Yeah, you know it hurt me, it hurt me so bad, people

G|---------------------------------------------------|-------------------------|
D|-3-----------3-------3---3-----------3-/-5---5-----|-------------------------|
A|-----------------------------------------------5-4-|-3-----------------------|
E|---------------------------------------------------|-------0-----1-----2-----|
                        And today I've got 'em bad

G|--------------------------------------------------|-------------------------|
D|--------------------------------------------------|-------------------------|
A|--------------------------------------------5---4-|-3---3-1---1-0---0-------|
E|-3----------3---3-------3---3---3---3---3---------|-------------------3---0-|
                                             
G|-------------------------|-------------------------|-------------------------|
D|-------------------------|-------------------------|-------------------------|
A|-------0-----1-----2-----|-3---1-3-----2-----0-----|-3-----3-----1-----0-----|
E|-1---1-------------------|-----------------------3-|-----3-----3-----0-----3-|

G|-------------------------|-------------------------|-------------------------|
D|-----------------------5-|-3-----------------------|-----------------------0-|
A|-------0-----3-----5-3---|-------6-----5-----4-----|-3---3-------0-------0---|
E|-1---1-------------------|-------------------------|-------0-----------3-----|

G|---------------------5---7-------7---5-----------|
D|-------------2---5-----------------------7-----x-|
A|-3-------3-3-------------------------------------|
E|-------------------------------------------------|

G|-----------------------------------------2---------|-------------------------|
D|-5-----------3-----------2-----------0-------0---2-|-3---3-------------------|
A|---------------------------------------------------|-------6-----5-----4-----|
E|---------------------------------------------------|-------------------------|

G|-------------------------|---------------------------------------------------|
D|-------------------------|-------------------------5-------5---7---5---------|
A|-3---3-------------------|-----------------------------5---------------5-5-4-|
E|-------0-----1-----2-----|-3-------3---3---3---3-----------------------------|
                                                                       Yes, my baby 

G|-------------------5-7---|-------------------------|-------------------------|
D|-------2-----5---------5-|-3---3-------------------|-------------------------|
A|-3---3-------------------|-------6-----5-----4-----|-3---3-------0-------5-2-|
E|-------------------------|-------------------------|-------0-----------3-----|
knows that I love her             I don't know why did  
                                           she do me like she did

G|-------------------------|-------------------------|-------------------------|
D|-------------------------|-----------------------2-|-3-----0-----------------|
A|-3---3-------0-------3---|-------0-----3-----5-3---|-----0-------3-------0-2-|
E|-------0-----------3---0-|-1---1-------------------|-------------------3-----|
                         Yes, my baby knows           Yes, I don't know why
                                   that I love her      she did me like she did

G|-------------------------|-----5-----5-----5-------|
D|-------------------------|-------------------------|
A|-3---3-1-----0-------0-2-|-3-----3-----3-----3-0---|
E|-------------------3-----|-----------------------2-|
                                               Yes, the reason,

G|---------------------------------------------------|-------------------------|
D|-------------------------0-------0---2---0---------|-------------------------|
A|-------------2-------2-----------------------------|-------0---0-1---1-2---2-|
E|-3-------3-----------------------------------3-3-2-|-1---1-------------------|
the reason I'm trying to explain to you people        Oh because my baby  
                                                            gave me a dirty deal 

G|-------------------------|-------------------------|
D|-------2---2-3-----4-----|-5---5-------------------|
A|-3-----------------------|-------5---3-------------|
E|-------------------------|-------------------------|


| /  slide up
| \  slide down
| h  hammer-on
| p  pull-off
| ~  vibrato
| +  harmonic
| x  Mute note
===============================================================================
Добавлено: 19.04.2016
Вам также может быть интересно:
Другие материалы по этой песне:
  • Аккорды и текст

Страница создана 19.04.2016
http://primanota.ru/freddie-king/today-i-sing-blues-chords.htm
Привет, Гость.
Предлагаем пройти революционный курс по гитаре.
Подарок от PrimaNota.Ru, забирай!