PrimaNota.ru - самый крупный в мире бесплатный архив песенных текстов, аккордов, табулатур и нот


Freddie King - That Will Never Do - бас-таба, видео

Регистрация Запомнить меня
Войти через:  Facebook Google Twitter Vk Yandex Mail.ru

Freddie King - That Will Never Do - бас-таба, видео

Печатать
Просмотров: 47
-------------------------------------------------------------------------------
                        THAT WILL NEVER DO - Freddie King
-------------------------------------------------------------------------------
Album: Freddie King Is A Blues Master (2005)

Tuning: Standard

G|-----5-5-3-3-2-0-|---------5---5---------------0---|-----5-5-3-3-2-0-|
D|-----------------|-------------------------3-------|-----------------|
A|-3-3-------------|-3---------------2-2-------------|-3-3-------------|
E|-----------------|---------------------------------|-----------------|

G|---------5---5---------------2---|-----10-10-8-8-7-5-|---------10---10--------------------|
D|-----------------2-2-----3-------|-------------------|-------------------7-7-----8---10---|
A|-3---3---------------------------|-8-8---------------|-8---8------------------------------|
E|---------------------------------|-------------------|------------------------------------|

G|-----5-5-3-3-2-0-|---------5---5-------------------|-0-0-12-12-10-10-9-7-|
D|-----------------|-------------------2-----3---4---|---------------------|
A|-3-3-------------|-3---3---------------------------|---------------------|
E|-----------------|-----------------0---------------|---------------------|

                                                    |-3-|                      |--3--|
G|---------10---10--------------------|-----5-5-3-3-x-2---|--------------12-12-12------|
D|-------------------7-7-----9---10---|-----------------3-|----------------------------|
A|-8---8------------------------------|-3-3---------------|---10-10-10-----------------|
E|------------------------------------|-------------------|-----------------------10-9-|

G|-----5-5-3-3-2-0-|---------5---5---------------0---|-----5-5-3-3-2-0-|
D|-----------------|-----------------2-2-----3-------|-----------------|
A|-3---------------|-3---3---------------------------|-3-3-------------|
E|-----------------|---------------------------------|-----------------|
  Well, my baby...    She's spending free and wise     She got in a new place lately,

G|------------------|-----------------|---------------------------------|
D|------------------|-----3-3-1-1-0---|---------3---3-------------------|
A|-3--3--1--0--0----|---------------3-|-----------------0-0-----1---2---|
E|----------------3-|-1-1-------------|-1---1---------------------------|
 She treats me...     But baby,              that will never do.

G|-----5-5-3-3-2-0-|---------5---5-------------------|-0-0-12-12-10-10-9-7-|
D|-----------------|-----------------2-2-----3---4---|---------------------|
A|-3-3-------------|-3---3---------------------------|---------------------|
E|-----------------|---------------------------------|---------------------|
                                                     Now if that's the way...

G|---------10---10--------------------|-----5-5-3-3-2-0-|-----------0-0-----|
D|-------------------7-7-----8---10---|-----------------|-------3-------3p1-|
A|-8---8------------------------------|-3-3-------------|-3---3-------------|
E|------------------------------------|-----------------|-------------------|
     Might as well say we're through.
                     |--3--|
G|-----5-5-3-3-2-0-|---------5---5-------------------|-----5-5-3-3-2-0-|
D|-----------------|-----------------2-2-----3---5---|-----------------|
A|-3-3-------------|-3---3---------------------------|-3---------------|
E|-----------------|---------------------------------|-----------------|
  Now it's got to...  I can't tell her what to do      She will shake...

G|------------------|-----------------|---------------------------------|
D|------------------|-----3-3-1-1-0---|---------3---3-------------------|
A|-3--3--1--0--0----|---------------3-|-----------------0-0-----1---2---|
E|----------------3-|-1-1-------------|-1---1---------------------------|
And say I'm workin'... But baby,        that will never do.
               |-3-|   
G|-----5-5-3-3-2-----|---------5---5-------------------|-----------------|
D|---------------2-3-|-----------------2-2-----3---5---|-----5-5-3-3-2-0-|
A|-3-3---------------|-3---3---------------------------|-----------------|
E|-------------------|---------------------------------|-3-3-------------|
                                                        Now if that's...
                                                 |-3-| 
G|---------------------------------|-----5-5-3-3-2-----|---0-0-0---------------|
D|---------3---3-------------------|---------------2-3-|-----------------------|
A|-----------------0-0-----1---2---|-3-3---------------|-------------------0-2-|
E|-1---1---------------------------|-------------------|-----------3-3-3-3-----|
    You might as well say we're through

G|-----5-5-3-3-2-0-|---------5---5-------------------|---0-5-5-3-3-2-0-|-----5-5---3---2---|
D|-----------------|-----0-----------2-2-----3---5---|-----------------|-------------------|
A|-3-3-------------|-3-------------------------------|-----------------|-3-3---------------|
E|-----------------|---------------------------------|-----------------|-------------------|

               |-3-| 
G|-------------------|-------------------|---0-5-5-3-3-2-0-|-----0---5---5-------------------|
D|-3-3---------0-----|-------------------|-----------------|-----------------2-2-----3---5---|
A|-----0---3-3---3-0-|-----0-0---1---2-2-|-3---------------|-3-------------------------------|
E|-------------------|-1-1---------------|-----------------|---------------------------------|

                                                                   |-3-|
G|-----------------|---------------------------------|---0-5-5-3-3-2-----|
D|---0-5-5-3-3-2-0-|---------3---3-------------------|---------------2-3-|
A|-----------------|-----------------0-0-----1---2---|-3-----------------|
E|-3---------------|-1---1---------------------------|-------------------|

   |-3-| |-3-|     |-3-|
G|---0-0-0-0-0---0-------|---0-5-5-3-3-2-0-|---0-5-5-3-3-2-0-|---0-5-5-3-3-2-0-|
D|-----------------3-----|-----------------|-----------------|-----------------|
A|-------------------0-2-|-3---------------|-3---------------|-3---------------|
E|-----------------------|-----------------|-----------------|-----------------|
                          And the woman...  She don't want... Now she raise all...

G|---0-5-5-3-3-2-0-|-----10-10-8-8-7-5-|-----------------|---0-5-5-3-3-2-0-|
D|-----------------|-------------------|-----------------|-----------------|
A|-3---------------|-8-8---------------|-8-8-6-6-5-5-4-4-|-3---------------|
E|-----------------|-------------------|-----------------|-----------------|
  Whenever I go...   Well, listen baby,  that will never do

G|-----------------|-----------------|-----------------|---0-5-5-3-3-2-0-|
D|-----------------|---0-5-5-3-3-2-0-|-----3-3-1-1-0---|-----------------|
A|-3-3-1-1-0-0-----|-----------------|---3-----------2-|-3---------------|
E|-------------3-3-|-----------------|-1---------------|-----------------|
                     Now if that's... you might as well...
       |-3-| |-3-| |-3-| 
G|---------0---0-0-0-----|---0-5-5-3-3-2-0-|-----0---5---5-------------------|
D|-----2-3---------------|-----------------|-----------------2-2-----3---5---|
A|-3-3---------------0-2-|-3---------------|-3-------------------------------|
E|-----------------------|-----------------|---------------------------------|
                          Well baby          That will never do

G|---0-5-5-3-3-2-0-|-----------------|-----------------|---------------------------------|
D|-----------------|-----------------|-----3-3-1-1-0---|---------3---3-------------------|
A|-3---------------|-3-3-1-1-0-0-----|---3-----------3-|-----3-----------0-0-----1---2---|
E|-----------------|-------------3-3-|-1---------------|-1-------------------------------|
                                       Well baby,             that will never do

G|---0-5-5-3-3-2-0-|-----0---5---5---------------0---|-----0-0---------|
D|-----------------|-----------------2-2-----3-------|---0-----3-3-2-0-|
A|-3---------------|-3-------------------------------|-----------------|
E|-----------------|---------------------------------|-3---------------|
                                                Now if that's the way...

G|-----------------|-------------0---|
D|---0-------------|-----2---3-3-----|
A|-----------------|-3-------------3-|
E|-1---------------|-----------------|
       You might as well...

| /     slide up
| \     slide down
| h     hammer-on
| p     pull-off
| ~     vibrato
| +     harmonic
| x     Mute note
| |-3-| Triplet
===============================================================================
Добавлено: 19.04.2016
Другие материалы по этой песне:
  • Аккорды и текст

Страница создана 19.04.2016
http://primanota.ru/freddie-king/that-will-never-do-chords.htm
Привет, Гость.
Предлагаем пройти революционный курс по гитаре.
Подарок от PrimaNota.Ru, забирай!