PrimaNota.ru - самый крупный в мире бесплатный архив песенных текстов, аккордов, табулатур и нот


Freddie King - Sad Night Owl - таба, видео

Регистрация Запомнить меня
Войти через:  Facebook Google Twitter Vk Yandex Mail.ru

Freddie King - Sad Night Owl - таба, видео

Печатать
Просмотров: 42
-------------------------------------------------------------------------------
                             SAD NIGHT OWL - FREDDIE KING
-------------------------------------------------------------------------------
A very simple little intro that is a great introduction to working thirds and 
sixths into your playing.

Tabbed by: BARBOY07079

Tuning: Standard
  
   G7       C7        G7                          C7

e|--------------------6/7-3--------------------------------------------------|
B|------5-3------10-8-------3-5/6-5-3------------------10-8------10-8--------|
G|-3/4--5-4-8/9--10-9-6/7-4-4-6/7-5-3h4-5-4-3-2---8/9--10-9-8/9--10-9--------|
D|-4/5------9/10------------------------5-5-4-3---9/10------9/10-------------|
A|---------------------------------------------------------------------------|
E|---------------------------------------------------------------------------|

   G7                         D7           C7        G7

e|-6/7-3---------------------------------------------------------------------|
B|-------3-5/6-5-3------------------12-10-------10-8-----5-3-----5-3---------|
G|-6/7-4-4-6/7-5-3h4-5-4-3-2--10/11-12-11--8/9--10-9-3/4-5-4-3/4-5-4---------|
D|-------------------5-5-4-3--11/12--------9/10------4/5-----4/5-------------|
A|---------------------------------------------------------------------------|
E|---------------------------------------------------------------------------|

************************************

| /   slide up
| h   hammer-on

************************************
Добавлено: 19.04.2016
Другие материалы по этой песне:
  • Аккорды и текст

Страница создана 19.04.2016
http://primanota.ru/freddie-king/sad-night-owl-chords.htm
Привет, Гость.
Предлагаем пройти революционный курс по гитаре.
Подарок от PrimaNota.Ru, забирай!