PrimaNota.ru - самый крупный в мире бесплатный архив песенных текстов, аккордов, табулатур и нот


Freddie King - Look Ma Im Crying - аккорды и текст, видео

Регистрация Запомнить меня
Войти через:  Facebook Google Twitter Vk Yandex Mail.ru

Freddie King - Look Ma Im Crying - аккорды и текст, видео

Печатать
Просмотров: 142
Look Ma Im Crying
Freddie King
SONG:   LOOK MA I'M CRYING
ARTIST: FREDDIE KING
TAB BY: DON CZARSKI
EMAIL:  GUITARZAN7@HOTMAIL.COM

                    LOOK MA I'M CRYING
                       FREDDIE KING

INTRO: (As Chords) 
D G  C     G  C  G  D
 
INTRO: 
E ----1-3---6b--3-1-------1-3--3-1------------------|
B --3---------------3-1------------3-1--1-----------|
G ----------------------3-------------------3-0-0-0-|
D --------------------------------------------------|
A --------------------------------------------------|
E --------------------------------------------------|
 
E -----------------------------------|
B -----------------------------------|
G -----------------------------------|
D --3/5-3----------3--5-5---5--------|
A --------5-5----5------------3-5-5--|
E -----------------------------------|


VERSE:
D             G
Look Ma I'm crying, I'm crying, I'm crying 
                      C
Oooh-oh my heart is breaking
                 G
You know she'd called me
                     D
And she told me Woh-Ooh-Oh
                G      C  G  D
That we were through, Woh-oh-oh


VERSE:
D           G            C
I've never felt so much pain
         G                       C
You was right she was playing a game
               G
That girl was lying
                  D
Woooooh my tears are flying
                   G  C  G  D
Look mom I'm a crying

 
BREAK:
      C              G
If I take in your advice
      C                     G
I may be then looking all right
           A
But I was blind
                 
And I could not see
    D
So mama, mama, come and rescue me


VERSE:
                 G
Look mom I'm a crying, I'm crying, I'm crying 
               C
Wooh-oh I'm worrying
             G
Why did she call me and tell me 
     D                     G       C  G  D
Wooh-oh yes that we were through, Woh-oh-oh


VERSE:
      G                  C
I've never felt so much pain              
         G                       C
You was right she was playing a game
                G
That girl was lying
                       D
Ooooooh my tears are flying
                   G  C  G  D
Look mom I'm a crying
Добавлено: 29.10.2013
Другие материалы по этой песне:
  • Аккорды и текст

Страница создана 29.10.2013
http://primanota.ru/freddie-king/look-ma-im-crying-chords.htm
Привет, Гость.
Предлагаем пройти революционный курс по гитаре.
Подарок от PrimaNota.Ru, забирай!