PrimaNota.ru - самый крупный в мире бесплатный архив песенных текстов, аккордов, табулатур и нот


Freddie Hubbard - Straight Life - таба, видео

Регистрация Запомнить меня
Войти через:  Facebook Google Twitter Vk Yandex Mail.ru

Freddie Hubbard - Straight Life - таба, видео

Печатать
Просмотров: 79
Авторы музыки: Freddie Hubbard

-------------------------------------------------------------------------------
                           Straight Life - Freddie Hubbard
-------------------------------------------------------------------------------

           F7               Eb7              F7               Eb7
e|--------|----------------|----------------|----------------|----------------|
B|--------|----------------|----------------|----------------|----------------|
G|--5-----|----------------|----------------|----------------|------------5---|
D|----8-7-|------5-7-5---5-|--------5-------|5---------------|--------------8-|
A|--------|------------8---|------8---8-6---|----8-----------|----------------|
E|--------|----------------|--------------8-|----------------|----------------|

  F7               Eb7              F7               Eb7
e|----------------|----------------|----------------|----------------|
B|----------------|----------------|----------------|----------------|
G|----------------|----------------|----------------|----------------|
D|7-----5-7-5---5-|--------5-------|----------------|----------------|
A|------------8---|------8---8-6---|6---8-----------|--------------8-|
E|----------------|--------------8-|----------------|----------------|

  F7               Eb7              F7               Eb7
e|----------------|----------------|----------------|----------------|
B|----------------|----------------|----------------|----------------|
G|--------5---7-8-|----------------|8---7---5-----5-|----------------|
D|7---8-----------|----------------|------------8---|----------------|
A|----------------|--------------8-|----------------|--------------8-|
E|----------------|----------------|----------------|----------------|

  F7               Eb7              F7               Eb7
e|----------------|----------------|----------------|----------------|
B|----------------|----------------|----------------|----------------|
G|--------5---7---|8---7---5-------|5---------------|----------------|
D|7---8-----------|------------8---|----7---7---6-7-|------7---5-----|
A|----------------|----------------|----------------|------------8-6-|
E|----------------|----------------|----------------|----------------|

  F7               Eb7              F7               Eb7
e|----------------|----------------|----------------|----------------|
B|----------------|----------------|----------------|----------------|
G|----------------|----------------|----------------|----------------|
D|----------------|--7-6-7---5-----|----------------|--7-6-7---5-----|
A|8---6-----------|------------8-6-|8---6-----------|------------8-6-|
E|----------------|----------------|----------------|----------------|

  F7               Eb7              F7               Eb7
e|----------------|----------------|----------------|----------------|
B|----------------|----------------|----------------|----------------|
G|----------------|----------------|----------------|----------------|
D|----------------|------------5---|----------------|----------------|
A|8---6-----------|6-8-8-8-8-----8-|----------------|----------------|
E|--------------8-|----------------|----------------|----------------|

************************************
Tuning: Standard
Time: 4/4 
Each - represents 1 sixteenth note.
Recommended Recording:
   Album: Straight Life
   Featuring: Freddie Hubbard
              George Benson 
              Herbie Hancock
              Joe Henderson
              Ron Carter
************************************
Добавлено: 12.06.2016
Другие материалы по этой песне:

Страница создана 17.03.2012
http://primanota.ru/freddie-hubbard/straight-life-chords.htm
Привет, Гость.
Предлагаем пройти революционный курс по гитаре.
Подарок от PrimaNota.Ru, забирай!