PrimaNota.ru - самый крупный в мире бесплатный архив песенных текстов, аккордов, табулатур и нот


Freddie Hubbard - Gibraltar - таба, видео

Регистрация Запомнить меня
Войти через:  Facebook Google Twitter Vk Yandex Mail.ru

Freddie Hubbard - Gibraltar - таба, видео

Печатать
Просмотров: 204
Авторы: Freddie Hubbard

---------------------------------------------------------------------------
                             Gibraltar - Freddie Hubbard
---------------------------------------------------------------------------
Tabbed by: Vince M.
Email: vince_guit_vince@hotmail.com
Actually, I'm not really into jazz music, but I had to do this one for school, so I 
to tab it on UG. It's also my first one.

Tuning: Standard

Bass Intro

G|--------------|------------------|
D|--------0---2-|-(2)----3----2--0-|
A|--------------|------------------|
E|-3---3----3---|-----3------------|

Guitar
Part A

e|-----------|--------------------|----------------|
B|°------3---|----------------3---|---------------°|
G|-----3---5-|~~~~~~----2-3-5---3-|-5-2------------|
D|---5-------|--------5-----------|-----3----------|
A|°----------|--------------------|-------5~~~~~~-°|
E|-----------|--------------------|----------------|

Part B

e|-----------1-|-3~~~~-1-------|-----------1~~~-1---1---|---------------|-----|
B|---------3---|---------4-3-2-|~~~~~-1-----------4---1-|~~~---121------|-----|
G|---2-3-5-----|---------------|--------3---------------|-----3---3-----|-----|
D|-5-----------|---------------|------------------------|-----------5-3-|5~~~-|
A|-------------|---------------|------------------------|---------------|-----|
E|-------------|---------------|------------------------|---------------|-----|

e|---------|----------|
B|-121-----|----------|
G|----3----|----3-~~~-|
D|------5-3|-5--------|
A|---------|----------|
E|---------|----------|

Repeat Intro

Part C

e|--------|------|------|---|------|------|------|---|------|------|-----|
B|--------|------|------|---|------|------|------|---|------|----2-|-2---|
G|--------|------|------|---|------|-1--3-|-3----|---|-1--1-|-4----|---1-|
D|--------|-3--5-|-5----|---|-3--3-|------|----3-|-3-|------|------|-----|
A|-5----5-|------|----5-|-5-|------|------|------|---|------|------|-----|
E|--------|------|------|---|------|------|------|---|------|------|-----|

e|---|------|------|---------|---|
B|---|------|-3--5-|-5-----1-|-1-|
G|-1-|-4--4-|------|----4----|---|
D|---|------|------|---------|---|
A|---|------|------|---------|---|
E|---|------|------|---------|---|

Impro Time (Solo)
Then, Reapeat some parts and youre done!!!

| /  slide up
| \  slide down
| h  hammer-on
| p  pull-off
| ~  Let ring
| +  harmonic
| x  Mute note
=========================================================================
Добавлено: 14.06.2012
Другие материалы по этой песне:

Страница создана 12.04.2012
http://primanota.ru/freddie-hubbard/gibraltar-chords.htm
Привет, Гость.
Предлагаем пройти революционный курс по гитаре.
Подарок от PrimaNota.Ru, забирай!