PrimaNota.ru - самый крупный в мире бесплатный архив песенных текстов, аккордов, табулатур и нот


Freddegredde - The Star Song - таба, видео

Регистрация Запомнить меня
Войти через:  Facebook Google Twitter Vk Yandex Mail.ru

Freddegredde - The Star Song - таба, видео

Печатать
Просмотров: 104
Freddegreddes amazing The Star Song. This is the whole basic song finger picked.

Standard tuning.





Intro
|-----------0-----------------0------------------0------------------0-----------------|
|--------1-----1-----------1-----1------------1-----1------------1-----1--------------|
|-----0-----------0-----0-----------0------0-----------0------0-----------0-----------|
|--2-----------------3------------------2------------------3--------------------------|
|-------------------------------------------------------------------------------------|
|-------------------------------------------------------------------------------------|


Vers
|-----------0-----------------0------------------0------------------0-----------------|
|--------1-----1-----------1-----1------------1-----1------------1-----1--------------|
|-----0-----------0-----0-----------0------0-----------0------0-----------0-----------|
|--2-----------------3------------------2------------------3--------------------------|
|-------------------------------------------------------------------------------------|
|-------------------------------------------------------------------------------------|

|----------------------------0-----------------0------------------0-------------------|
|-----------1-------------------1-----------------1------------------1----------------|
|--------2-----2----------0--------0--------0--------0--------0---------0-------------|
|-----2-----------2----2-----------------2-----------------2--------------------------|
|--0----------------------------------------------------------------------------------|
|--------------------1----------------3-----------------1-----------------------------|
Pre chorus
|----------------------------------------------------------------1--------------------|
|-----------1----------------1--------------1--------1--------1-----------------------|
|--------2----2-----------2-----2--------------------------2--------------------------|
|-----2----------2-----0-----------0-----0--------0-----------------------------------|
|--0----------------2-----------------3-----------------------------------------------|
|----------------------------------------------3--------1-----------------------------|

|----------------------------------------------------------------1------------------|
|-----------1----------------1--------------1--------1--------1-----1---------------|
|--------2----2-----------2-----2--------------------------1-----------1------------|
|-----2----------2-----0-----------0-----0--------0-----3---------------------------|
|--0----------------2-----------------3---------------------------------------------|
|----------------------------------------------3------------------------------------|

----------1----------------|
-------1-----1-------------|
----1-----------1----------|
-3-------------------------|
---------------------------|
---------------------------|

Chorus
|-----------0-----------------0------------------0------------------0-----------------|
|--------1-----1-----------1-----1------------1-----1------------1-----1--------------|
|-----0-----------0-----0-----------0------0-----------0------0-----------0-----------|
|--2-----------------3------------------2------------------3--------------------------|
|-------------------------------------------------------------------------------------|
|-------------------------------------------------------------------------------------|

|----------------------------0-----------------0------------------0-------------------|
|-----------1-------------------1-----------------1------------------1----------------|
|--------2-----2----------0--------0--------0--------0--------0---------0-------------|
|-----2-----------2----2-----------------2-----------------2--------------------------|
|--0----------------------------------------------------------------------------------|
|--------------------1----------------3-----------------1-----------------------------|


Repeat and have fun with this amazing song!
Добавлено: 24.02.2012
Другие материалы по этой песне:
  • Аккорды и текст

Страница создана 24.02.2012
http://primanota.ru/freddegredde/the-star-song-chords.htm
Привет, Гость.
Предлагаем пройти революционный курс по гитаре.
Подарок от PrimaNota.Ru, забирай!