PrimaNota.ru - самый крупный в мире бесплатный архив песенных текстов, аккордов, табулатур и нот


Fred Neil - Yonder Come The Blues - аккорды и текст, видео

Регистрация Запомнить меня
Войти через:  Facebook Google Twitter Vk Yandex Mail.ru

Fred Neil - Yonder Come The Blues - аккорды и текст, видео

Печатать
Просмотров: 162
Yonder Come The Blues
Fred Neil
Fred Neil - Bleecker & MacDougal
Yonder come the blues


Intro:
e ------0---0----4---4----------2-------0--------------------|
b --------3--------6---------4----------------3--2-----------|
G --------1-------------3-3--2-----0_1--------4--3—3_2_0-----|
D ---2------------------4-4-------------------------------2--|
A -2-----------4-------------2-------------------------------|
E ----------------------2-2----------------0-----------------|
                                           hammer on           pull off

E7                      C#7        F#  B7    E7
Raindrops falling on a roof of tin   Oh bad news
                        C#7
Roof keeps leaking the rain pours in
F#            B7           E7
I guess I'm paying my dues
Ab6              A6    F#7
Look over yonder now      Tell me what do you see
E      Bbdim     F#m7           B+   E7
Yonder comes the blues running after me

          E7                B7+9
e -----0-----0-----------0-----0--------------|
b --------3-----------0-----3-----------------|
G –0_1----1-----0_1_2-------2-----2_0-0_1-----|
D --------------------------------------------|
A --------------------------2-----------------|
E --------0--------------------------------0--|

E7                  C#7
It keeps on raining all the time
F#                 B7    E7
Sometimes out but mostly in
E7                          C#7
I've been waiting for that sun to shine
F#                 B7        E7
Oh since I can't recall when
Look over yonder...
E7                   C#7
If your sweet mama treat you right
             F#          B7    E7
I think you better take my advise
                               C#7
Don't go pussy footing ‘round late at night
F#7                      B7     E7
I know you better think twice
Ab6                           A6
You're gonna look over your shoulder
F#7
You know I'm telling you true
E      Bbdim     F#m7   E        Bbdim      
 F#m7
Yonder comes the blues dressed in high heel shoes
E      Bbdim     F#m7           B+   E7
Yonder comes the blues running after you

e ---0---0--0-----------------0---|
b ---3---2--2-----------------3---|
G ---4---3--2-----2_1_0-------1---|
D -----------------------2----2---|
A -------------------------2--2---|
E -0----0------0--------------0---|
Добавлено: 17.03.2012
Другие материалы по этой песне:
  • Аккорды и текст

Страница создана 17.03.2012
http://primanota.ru/fred-neil/yonder-come-the-blues-chords.htm
Привет, Гость.
Предлагаем пройти революционный курс по гитаре.
Подарок от PrimaNota.Ru, забирай!