PrimaNota.ru - самый крупный в мире бесплатный архив песенных текстов, аккордов, табулатур и нот


Fred Mcdowell - You Gotta Move - таба, видео

Регистрация Запомнить меня
Войти через:  Facebook Google Twitter Vk Yandex Mail.ru

Fred Mcdowell - You Gotta Move - таба, видео

Печатать
Просмотров: 115
http://en.wikipedia.org/wiki/Fred_McDowell
Playing Notes:

/ - slide up
\ - slide down
h - hammer on
p - pull off
s - slide beetween notes
~ - vibrato

played in Open D (D A D F# A D from low to high)

D-|-0--/4--/7~-------------/7--7-s-5--0--/4----------/7--7--7--7--5--5--5-5|
A-|------------------------------------------------------------------------|
F#|--------------0--------------------------0------------------------------|
D-|-----------0--0--------------------------0------------------------------|
A-|--------------0--------------------------0------------------------------|
D-|-----------------/4--0----------------------/4--0-----------------------|



D-|7--4--0----------------------0-/4~---------------/4~--------------------|
A-|-------/5~------------0-/3--------------------------/5~--0--------------|
F#|-----------0---------------------0--0-----------------------0-----------|
D-|-----------0------0-----------------0-----------------------0-----------|
A-|-----------0------------------------0-----------------------0-----------|
D-|--------------/4-----------------------/4--0-0-----------------/4--0----|



D-|------------------------------5---/7~-----/7-7s5-/7--/4-----------/7--7-|
A-|3-/5--3-/5--------------------------------------------------------------|
F#|-------------0-------------------------------------------0--------------|
D-|----------0--0-----------------------0-0-----------------0--------------|
A-|-------------0-------------------------0-----------------0--------------|
D-|----------------/4--0---------------------------------------/4--0-------|
                         You got to move     You gotta move         You got-


D-|7---7--5--5--5--5--7--4--0-------------------------0---/4~--------------|
A-|-----------------------------/5~-----------0--/3------------------------|
F#|---------------------------------0--------------------------0-----------|
D-|---------------------------------0--------------------------0-----------|
A-|---------------------------------0--------------------------0-----------|
D-|------------------------------------/4--0----------------------/4--0-0--|
 ta move chi  -  ld you gotta move           but when the lord


D-|/4----------------------------------------------------------------------|
A-|---/5-0---------3--/5---3--/5-------------------------------------------|
F#|--------0-------------------------0--------------------0----------------|
D-|--------0----0--------------------0--------0--/4--/7~--0--------/7-7-s-5|
A-|--------0-------------------------0--------------------0----------------|
D-|----------/4------------------0-0----/4--0----------0-----/4--0---------|
 gets rea   -   dy you  gotta move


D-|-------------------------------------------------------------------0--/4|
A-|--------------------------------------------------------------0-/3------|
F#|------0----------------------------------------------0------------------|
D-|0-/4~-0---------/7--7--7--7--5--5--5--5-/7--4--0-----0------------------|
A-|------0------------------------------------------/5~-0------------------|
D-|---------/4--0------------------------------------------/4--0-----------|



D-|--------0----/4---------------------------------------------------------|
A-|----------------/5--0----------3-/5--3-/5~------------------------------|
F#|-0--------------------0-----------------------0------------------------0|
D-|-0--------0-----------0---------------------0-0------------------------0|
A-|-0--------------------0-----------------------0------------------------0|
D-|0---/4--0----------------/4--0------------0------/4--0------------------|
                                                          you may be high


D-|----/7-7-s-5--7-/4----------/7---7---7---7--/5--5--5--5--/7---4--0------|
A-|--------------------------------------------------------------------/5--|
F#|-------------------0----------------------------------------------------|
D-|-------------------0----------------------------------------------------|
A-|-------------------0----------------------------------------------------|
D-|/4--0-----------------/4--0---------------------------------------------|
        you may be low         you may be rich chi   -  ld  you may be poor


D-|-----------------0---/4~-----------/4-----------------------------------|
A-|---------0--/3-------------------------/5-0-----3--/5--3--/5------------|
F#|0-------------------------0-------------------------------------0-------|
D-|0-------------------------0-------------------------------------0-------|
A-|0-------------------------0-------------------------------------0-------|
D-|--/4--0-----------------0----/4--0----------0-0---------------0----/4--0|
          but when the lord          gets rea - dy you gotta move


D-|------------------------------------------------------------------------|
A-|------------------------------------------------------------------------|
F#|-----------0------------------------0-----------------------------------|
D-|0-/4--/7---0--------/7-7-s-5--0-/4~-0-------/7--7--7--7--5--5--5--5--/7-|
A-|-----------0------------------------0-----------------------------------|
D-|---------0----/4--0--------------------/4--0----------------------------|



D-|------------------------------------------------------------------------|
A-|------------------------------------------------------------------------|
F#|--------0---------------------0---------------------------------------0-|
D-|4-0-----0--------------0--/4~-0--------/4-----------------------------0-|
A-|----/5~-0---------0-/3--------0-----------/5--0-0--0-0--3-/5--3--/5~--0-|
D-|-----------/4--0-----------------/4--0------------------------------0---|



D-|---------------------------------/7--7-s-5---0---/4-------------/7---7--|
A-|------------------------------------------------------------------------|
F#|-----------------------0------------------------------0-----------------|
D-|-----------------------0------------------------------0-----------------|
A-|-------------------0---0------------------------------0-----------------|
D-|/4-0----------------------/4--0--------------------------/4--0----------|
        you see that woman         that walked the street          you see


D-|7---7---5--5--5--5--5-/7--4--0-----------------------0---/4-------------|
A-|--------------------------------/5-----------0--/3----------------------|
F#|-----------------------------------0--------------------------0---------|
D-|-----------------------------------0--------------------------0---------|
A-|-----------------------------------0--------------------------0---------|
D-|--------------------------------------/4--0-----------------0----/4--0--|
 that police   -    man out on the beat        but when the lord


D-|/4----------------------------------------------------------------------|
A-|--/5--0-0-----3--/5--3--/5----------------------------------------------|
F#|------------------------------0---------------------0-------------------|
D-|------------------------------0---------0--/4--/7~--0-------/7-7-s-5--0-|
A-|------------------------------0---------------------0-------------------|
D-|-----------0----------------0----/4--0------------0----/4--0------------|
 gets rea - dy   you gotta move


D-|---------------------------------------------------------------0--/4~---|
A-|----------------------------------------------------------0-/3----------|
F#|----0--------------------------------------------0---------------------0|
D-|-/4-0-------/7--7--7--7--5--5--5--5-/7--4--0-----0---------------------0|
A-|----0----------------------------------------/5~-0---------------------0|
D-|-----/4--0------------------------------------------/4--0------------0--|



D-|---0--/4-------------------------------------------------------------/7-|
A-|---------/5--0-0---------3-/5--3-/5~------------------------------------|
F#|---------------0----------------------0---------------------------------|
D-|---------------0----------------------0-------------------------0--0----|
A-|---------------0----------------------0-------------------------0-------|
D-|/4--0-------------/4--0-------------0----/4--0----------------0---------|
                                                   you gotta move       you


D-|7-s-5--0--/4~--------/7---7---7---7---5--5--5--5-/7--4--0---------------|
A-|-----------------------------------------------------------/5~----------|
F#|-------------0--------------------------------------------------0-------|
D-|-------------0--------------------------------------------------0-------|
A-|-------------0--------------------------------------------------0-------|
D-|----------------/4--0----------------------------------------------/4--0|
  got - ta move          you gotta  move chi  -  ld you gotta move


D-|-------0---/4~----------/4----------------------------------------------|
A-|0-/3-----------------------/5--0---------3---/5--3--/5~-----------------|
F#|---------------0-----------------------------------------0--------------|
D-|---------------0-----------------------------------------0--------0--/4-|
A-|---------------0------------------0-0-0------------------0--------------|
D-|------------------/4--0--------------------------------0----/4--0-------|
 but when the lord        gets rea   -   dy you gotta move


D-|------------------------------------------------------------------------|
A-|------------------------------------------------------------------------|
F#|----0---------------------0---------------------------------------------|
D-|/7~-0--------/7-/7--0--/4-0--------/7--7--7--7--5--5--5--5--/7--4--0----|
A-|----0---------------------0-----------------------------------------/5~-|
D-|--0----/4--0-----------------/4--0--------------------------------------|



D-|--------------------------------------------------------------/12~--|
A-|--------------------------------------------------------------------|
F#|0---------------------0---------------------------------------------|
D-|0-------------0--/4~--0--------/4-----------------------------------|
A-|0--------0-/3---------0-----------/5--0-0--0-0--3-/5--3-/5~---------|
D-|--/4--0-------------0----/4--0-----------------------------0--------|

Добавлено: 18.06.2012
Другие материалы по этой песне:

Страница создана 18.06.2012
http://primanota.ru/fred-mcdowell/you-gotta-move-chords.htm
Привет, Гость.
Предлагаем пройти революционный курс по гитаре.
Подарок от PrimaNota.Ru, забирай!