PrimaNota.ru - самый крупный в мире бесплатный архив песенных текстов, аккордов, табулатур и нот


Freak Kitchen - Nobodys Laughing - текст песни, таба, видео

Регистрация Запомнить меня
Войти через:  Facebook Google Twitter Vk Yandex Mail.ru

Freak Kitchen - Nobodys Laughing - текст песни, таба, видео

Печатать
Просмотров: 91
Уроки эстрадного вокала в Санкт-Петербурге
"Nobody's Laughing" from the Freak Kitchen recording "Move"

Transcribed by Daryl Mitchell (hmprimerib@hotmail.com) 03/29/2003

Let me know if I mucked anything up, my typing is more prone to error than 
my playing. =)

Check out http://www.freakkitchen.com (and my other fav band 
http://www.fateswarning.com )



Guitar Tuning: for my transcription, I used Drop C# (dropped D,
and all strings down another semi-tone/half-step)
NOTE: 'IA' uses C#sus4 tuning on his guitar

Main/Chorus Riff:

       muted
        pick
        rake                                              muted
         |                                                | |
E----------------------------------------------------------------
B----------------------------------------------------------------
G-----------------5555-^-3333-^-----------------5555-^-33--------
D---0000-^-3333-^-5555-^-3333-^---0000-^-3333-^-5555-^-33-0-3----
A---0000-^-3333-^-3333-^-1111-^---0000-^-3333-^-3333-^-11-0-3----
E---0000-^-3333-^-----------------0000-^-3333-^-----------0-3----

Verse (arpeggiated and lightly muted):

E----0/1------3\1-----------1------0/1----3/5-----------1--------
B------------1--------3------1-----------1--------3------1-------
G---2----------------0-----3------2--------------0-----3---------
D--0--------3-------2-----3------0------3-------2-----3----------
A------------------3-----1---------------------3-----1-----------
E----------------------------------------------------------------

another chorus/verse or so & this next break before a chorus

Quick interlude break:

                       muted pick rakes
                       ||||
E----------------------------------------------------------------
B----------------------------------------------------------------
G----------------------------------------------------------------
D--6/77-6/77-6/77-6/77-^^^^--------------------------------------
A--6/77-6/77-6/77-6/77-^^^^--------------------------------------
E--6/77-6/77-6/77-6/77-^^^^--------------------------------------

Hope this helps somebody.  It's quick and dirty but it'll do the trick.

If you download the mp3 music and never buy the CD, you're a thief.  You're 
stealing money from the artist and their future.  C the right thing and buy 
the CD!
     
Добавлено: 13.10.2013
Другие материалы по этой песне:

Страница создана 13.04.2012
http://primanota.ru/freak-kitchen/nobodys-laughing-chords.htm
Привет, Гость.
Предлагаем пройти революционный курс по гитаре.
Подарок от PrimaNota.Ru, забирай!