PrimaNota.ru - самый крупный в мире бесплатный архив песенных текстов, аккордов, табулатур и нот


Freak Kitchen - Lisa - таба, видео

Регистрация Запомнить меня
Войти через:  Facebook Google Twitter Vk Yandex Mail.ru

Freak Kitchen - Lisa - таба, видео

Печатать
Просмотров: 148
Уроки эстрадного вокала в Санкт-Петербурге
"Lisa"

from the Freak Kitchen recording "Spanking Hour"

Transcribed by Daryl Mitchell (hmprimerib@hotmail.com) 09/15/2002

Let me know if I mucked anything up, my typing is more prone to
error than my playing. =)

Check out http://www.freakkitchen.com (and my other fav
band http://www.fateswarning.com )

Guitar Tuning: all strings tuned down 1/2 step (or 1 semi-tone)

Verse Riff:

clean guitar
                 SLIGHT BENDS
                  1/4 1/4                 1/4 1/4
                   ^   ^                   ^   ^
E----------|-----------------------------------------------------
B----------|-----------------------------------------------------
G---4/5----|-------5---5---5---------------5---5---5-------------
D---3/4----|-------5---5---4---------------5---5---4-------------
A---0------|-----0---0---0-0-------------0---0---0-0-------------
E----------|-----------------------------------------------------


                        Bridge type part:
     1/4 1/4                1/4 1/4
      ^   ^                  ^   ^
E----------------------------------------------------------------
B-------------------------------------------------------3--------
G-----5---5---5--------------5---5---5------0---------2----------
D-----5---5---4--------------5---5---3----2---------4------------
A---0---0---0-0------------0---0---0-0---------------------------
E----------------------------------------------------------------

E---0------0---------10------|-----------------------------------
B----------3---------10------|-----------------------------------
G----------------------------|----REPEAT 1st verse---------------
D---0------------------------|-----------------------------------
A-------2--------/10---------|-----------------------------------
E----------------------------|-----------------------------------


* 2nd bridge is similar except last 2 picked notes which are: *

             and the Chorus:                          Last 1 ends:
E-----------|---------------------------------0-----r|--2--------
B-----------|--2-3\2-0-----------3------------------e|--3--------
G------12-12|-----------2---2----2----2-----2-----2-p|-----------
D------12-12|-----------------------------0---------e|-----------
A---10------|--2-2---2--------------------------4---a|-----------
E-----------|-----------2-2---2--3--3---------------t|--3--------


Then the changes are chorus and verse riffs one step higher:

           1/4 1/4            1/4 1/4
            ^   ^              ^   ^
E----------------------------------------------------------------
B----------------------------------------------------------------
G--7--------7---7---7----------7---7---7-------------------------
D--6--------7---7---6----------7---7---5-------------------------
A----------------------------------------------------------------
E--7------7---7---7-7--------7---7---7-7-------------------------

You get the picture.  Have fun and look for more Freak Kitchen
transcriptions soon.

     
Добавлено: 03.06.2013
Другие материалы по этой песне:
  • Аккорды и текст

Страница создана 03.06.2013
http://primanota.ru/freak-kitchen/lisa-chords.htm
Привет, Гость.
Предлагаем пройти революционный курс по гитаре.
Подарок от PrimaNota.Ru, забирай!