PrimaNota.ru - самый крупный в мире бесплатный архив песенных текстов, аккордов, табулатур и нот


Freak Kitchen - Inner Revolution - текст песни, бас-таба, видео

Регистрация Запомнить меня
Войти через:  Facebook Google Twitter Vk Yandex Mail.ru

Freak Kitchen - Inner Revolution - текст песни, бас-таба, видео

Печатать
Просмотров: 179
Уроки эстрадного вокала в Санкт-Петербурге
song: inner revloution
band: freak kitchen
album: spanking hour
tabbed by: joel (j_sorensson@hotmail.com)


1-2-3-4:
gb-----------------
db-----------------
ab-----------------
eb-0000000000000---


Funky riff:
gb--------------9-
db----------------
ab----------------
eb-0--0-0--0--0---


gb---------------------------
db--------------------------- (listen to the guitar to
ab--8\----8\----8\-----------  time this part.)
eb---------------------12\\\-


Chorus riff:
gb-------------------  ------------------
db-------------------  ------------------
ab-------------------  ------------------
eb-0-0-0h1--0-0-0h3--  -1-1-1p0--1-1-1p0-

Fill:
gb---------------
db---------------
ab-7777777777777-
eb---------------


Verse:
gb------------------9----------------------
db--------------------9--------------------
ab---8--------8---------8---8--------------
eb-0--------0-------------0--------0-/12\--

gb---------------------------------------- Second time end on E (ab-7)
db----------------------------------------
ab-7-7-7h8--7-7-7h10---7-7-7h8--7-7-7h10--
eb----------------------------------------

Chorus.

Third verse:
gb--------------------------------------------
db---------6-5-----------6-5------------6-5---
ab---8---------8---8---------8---8----------8-
eb-0-------------0-------------0--------------

gb------------------------------------------------
db------------------------------------5-6-8-6-5---
ab-7-7-7h8--7-7-7h10---7-7-7h8--7-7-8-----------8-
eb------------------------------------------------

Chorus.


Samba:
gb--------------------------------------
db-------------------------------------- There are some slight
ab-7-7-----7-7-7------5-5-----5-5-5----- variations the last time.
eb-----7-7-------7-7------5-5-------5-5- But I wont bother with them.


Break in samba:
gb------------------------------------
db------------------------------------
ab------------------------------------
eb-1-1-0--1-1-0--1-1-1-0--1-1-0-1-1-0-


Funky Part.

Chorus.

Fill.

.whew. questions? comments? corrections? pics of cheese?
mail me.

     
Добавлено: 27.08.2013
Вам также может быть интересно:
Другие материалы по этой песне:
  • Аккорды и текст

Страница создана 20.03.2012
http://primanota.ru/freak-kitchen/inner-revolution-chords.htm
Привет, Гость.
Предлагаем пройти революционный курс по гитаре.
Подарок от PrimaNota.Ru, забирай!