PrimaNota.ru - самый крупный в мире бесплатный архив песенных текстов, аккордов, табулатур и нот


Frauenarzt - Disco Pogo - таба, видео

Регистрация Запомнить меня
Войти через:  Facebook Google Twitter Vk Yandex Mail.ru

Frauenarzt - Disco Pogo - таба, видео

Печатать
Просмотров: 175
Tuning: FULL STEP DOWN!


Riff 1:

|-------------------|
|-------------------|
|-----------7-------|
|---9---5---7---7---|
|---9---5---5---7---|
|---7---3-------5---|

Riff 2:

|-----------|
|-----------|
|-----------|
|---9---5---|
|---9---5---|
|---7---3---|


..thats it.
Hope it's almost right! ;)+
Добавлено: 10.03.2012
Вам также может быть интересно:
Другие материалы по этой песне:
  • Аккорды и текст

Страница создана 10.03.2012
http://primanota.ru/frauenarzt/disco-pogo-chords.htm
Привет, Гость.
Предлагаем пройти революционный курс по гитаре.
Подарок от PrimaNota.Ru, забирай!