PrimaNota.ru - самый крупный в мире бесплатный архив песенных текстов, аккордов, табулатур и нот


Frau Kapitaen - Kriegspalast War Palace - бас-таба, видео

Регистрация Запомнить меня
Войти через:  Facebook Google Twitter Vk Yandex Mail.ru

Frau Kapitaen - Kriegspalast War Palace - бас-таба, видео

Печатать
Просмотров: 107
Уроки эстрадного вокала в Санкт-Петербурге
-------------------------------------------------------------------------------
  BASS:    Kriegspalast - Frau Kapitaen
-------------------------------------------------------------------------------
Song:      Kriegspalast (English version: War Palace)
Album:     WAR GAMES
Artist:    Frau Kapitaen
Homepage:  www.frau-kapitaen.de
(C):       2015 Michael Schreiber

Tabbed by: Michael Schreiber
Email:     ms@frau-kapitaen.de

Tuning:    E-A-D-G

Remarks:   The bars and spaces are just for orientation, not really measured.
           Play it as your hear - and try some variations, have fun playing!

  \ = slide down
  / = slide up, special case: /(10) = slide up to 10, but don't strike it, yet
  ~ = slight vibrato, bend string up and down a bit
  . = staccato (play tight, then stop, e.g. by lifting the fret finger a bit)


Intro:
------

(Bass and vocals)

  "Aaausgegrenzt..."
  "Eeeeeexcluded..."
G|-14------14-14-----14-14----15-14------14------------12----|
D|--0---------------------------------------------15---------|
A|-----------------------------------------------------------|
E|-----------------------------------------------------------|
            
G|-----------------------------------------------------12////|
D|-14------14-14-----14-14----15-14------14-------12---------|
A|--0--------------------------------------------------------|
E|-----------------------------------------------------------|

                                        "Komm... in unser'n"
                                        "Come... into our"
G|-14----------------------------------|-------------------------------------|
D|--0----------------------------------|-------------------------------------|
A|-------------------------------------|-------------------------------------|
E|-------------------------------------|-------------------------------------|
    |------------------------ let ring

(Drums and rhythm guitar now joining in)


"Komm... in unser'n"
"Come... In our"

1st Refrain: (0:13)
------------

"KRIEGSPALAST!"
"WAR PALACE!"
G|-------------------------------------|-------------------------------------|
D|----------------------------------9\\|-------------------------------------|
A|--7----------7--7--7-----------------|-------------------------------------|
E|--0----------------------------------|--8-------------------7----------///-|

G|-------------------------------------|-------------------------------------|
D|--------------9----------------------|--------------9----------------------|
A|--7--7-7-7---------------------------|--7--7-7-7---------------------------|
E|--0-------------------8------7-------|--0-------------------8------7-------|

G|-------------------------------------|-------------------------------------|
D|-------------------10----10-10-STOP--|---------------------10------7//9----|
A|--8------7-----7-7-------------------|-------------------------------------|
E|-------------------------------------|-------------------------------------|
                               . |- mute


1st Verse: (0:35)
----------
"Verdienen tust Du Dir..."
"With us you don't..."
G|---------------------------------------------------|
D|---------------------------------------------------|
A|-14-14-14-14-14------12----14-14-14-15---14---14---|
E|---------------------------------------------------|
                                                 .
G|---------------------------------------------------|
D|---------------------------------------------------|
A|----------------------------------------------12---|
E|-15-15-15-15-15-15-15-15-14-14-14-14-14-14-12------|

(same as above)
G|---------------------------------------------------|
D|---------------------------------------------------|
A|-14-14-14-14-14------12----14-14-14-15---14---14---|
E|---------------------------------------------------|
                                                 .
(slightly different than before)
G|---------------------------------------------------|
D|---------------------------------------------------|
A|----------------------------------------------12---|
E|-15-15-15-15-15-15-12-14-14-14-14-14-14-14-12------|

G|---------------------------------------------------|
D|---------------------------------------------------|
A|-14-14-14-15---------------------------------------|
E|---------------------------------------------------|
            |------------ let ring

            
"Hier... in unser'm"
"Here... in our"

2nd Refrain: (0:52)
------------

"KRIEGSPALAST!"
"WAR PALACE!"
G|-------------------------------------|-------------------------------------|
D|--------------9----------------------|--------------9----------------------|
A|--7--7-7-7---------------------------|--7--7-7-7---------------------------|
E|--0-------------------8------7-------|--0-------------------8------7-------|

G|-------------------------------------|
D|--------------9----------------------|
A|--7--7-7-7---------------------------|
E|--0-------------------8------7-------|

G|-------------------------------------|-------------------------------------|
D|-------------------10----------------|------------------------------///////|
A|--8------7-----7-7-------------------|-------------------------------------|
E|-------------------------------------|-------------------------------------|
                     |--------------------------------------- let ring


Interlude: (1:14)
----------
   "Bevor...    wir D.g. Himmel heeeeben, gib   uns zuvor noch D. beschiss'nes"
   "Before...   we take your soul to h. give    us nothing more than your"
G|------|-------------------------------------|------------------------------|
D|------|--------------9----------------------|------------------------------|
A|--12--|-14~~--12-12-12-14-14---15----14-14--|----------------------12-12---|
E|------|-------------------------------------|-14--14-14--12-12-12----------|


  "Leben!"          (Gitarrenpart)
  "god-awful life!" (guitar part)
G|---------------------------------------------------|
D|--14-14~~~~\\\\------------------------------------|
A|---------------------------------------------------|
E|---------------------------------------------------|

Überleitung zur zweiten Strophe:              (Auftakt)
Bridge to the next verse:                     (Up-beat)
G|------|--------------------------------------------|
D|------|--------------------------------------------|
A|--12--|-14-14-14-14-14---12---14-14-14-15----12----|
E|------|--------------------------------------------|
                                               |-- let ring


2nd Verse: (1:28.5)
----------
  
G|---------------------------------------------------|
D|---------------------------------------------------|
A|-14-14-14-14-14------12----14-14-14-15---14---14---|
E|---------------------------------------------------|
                                                 .

G|---------------------------------------------------|
D|---------------------------------------------------|
A|----------------------------------------------12---|
E|-14-14-14-14-14-14-12-14-14-14-14-14-15-14-12------|

(same as above)
G|---------------------------------------------------|
D|---------------------------------------------------|
A|-14-14-14-14-14------12----14-14-14-15---14---14---|
E|---------------------------------------------------|
                                                 .
(slightly different than before)
G|---------------------------------------------------|
D|---------------------------------------------------|
A|---------------------------------------------------|
E|-14-14-14-14-14-14-12-14-14-14-14-14-14-14-12-12---|

G|---------------------------------------------------|
D|---------------------------------------------------|
A|---------------------------------------------------|
E|-10-----8-----0~~~~~~~~~~~~~~~~~~~~~~~~~~~~~~~~~---|
                |------------ let ring

            
"Du bleibst schön hier! In unser'm"
"You stay here! In our"

Last Refrain: (1:46)
-------------

"KRIEGSPALAST!"
"WAR PALACE!"
G|-------------------------------------|-------------------------------------|
D|--------------9----------------------|--------------9----------------------|
A|--7--7-7-7---------------------------|--7--7-7-7---------------------------|
E|--0-------------------8------7---////|--0-------------------8------7-------|

G|-------------------------------------|-------------------------------------|
D|--------------9----------------------|--------------9----------------------|
A|--7--7-7-7---------------------------|--7--7-7-7---------------------------|
E|--0-------------------8------7---////|--0-------------------8------7-------|

nun anders:
now, different: 7 - 8 - 8-8 (not 8 - 7 - 7-7, as before)
G|-------------------------------------|
D|--------------------10-10.-----------|
A|--7------8-----8---------------------|
E|-------------------------------------|
                           |-- mute


Outro: (2:08)
------
                                               
G|-14------14-14-----14-14----15-14------14------------12----|
D|--0---------------------------------------------15---------|
A|-----------------------------------------------------------|
E|-----------------------------------------------------------|
            
G|-----------------------------------------------------12----|
D|-14------14-14-----14-14----15-14------14-------12---------|
A|--0--------------------------------------------------------|
E|-----------------------------------------------------------|

                                     "...und verzweifelt sterben"
                                     "...in despair-"
G|------------------------------------------------12~~~~~////|
D|---------------------------------------12------------------|
A|-----------------------------------------------------------|
E|-----------------------------------------------------------|

  "seh'n...!"
  "ity.....!" (Dictionaries should list this word, it's useful, sad but true.)
G|-14----------------------------------------------------------------|
D|--0----------------------------------------------------------------|
A|-------------------------------------------------------------------|
E|-------------------------------------------------------------------|
    |----------------------------------------- let ring as long as possible :D


Done! Hope you enjoy it :D
Let us know if you find the tab helpful - or
if you find an error, so we can fix it.

Have fun and stay true \m/

~ Michael (ms@frau-kapitaen.de)
Добавлено: 25.04.2016
Вам также может быть интересно:
Другие материалы по этой песне:
  • Аккорды и текст

Страница создана 25.04.2016
http://primanota.ru/frau-kapitaen/kriegspalast-war-palace-chords.htm
Привет, Гость.
Предлагаем пройти революционный курс по гитаре.
Подарок от PrimaNota.Ru, забирай!